  0
SECTION
  2
HEADER
  9
$ACADVER
  1
AC1024
  9
$ACADMAINTVER
 70
   226
  9
$DWGCODEPAGE
  3
ANSI_932
  9
$LASTSAVEDBY
  1
h-sato
  9
$INSBASE
 10
0.0
 20
0.0
 30
0.0
  9
$EXTMIN
 10
309.9657847098406
 20
506.8806700319055
 30
-0.0015258207003583
  9
$EXTMAX
 10
1321.657097344368
 20
2164.871880209902
 30
0.0000000349246037
  9
$LIMMIN
 10
0.0
 20
0.0
  9
$LIMMAX
 10
210.0
 20
297.0
  9
$ORTHOMODE
 70
     0
  9
$REGENMODE
 70
     1
  9
$FILLMODE
 70
     1
  9
$QTEXTMODE
 70
     0
  9
$MIRRTEXT
 70
     1
  9
$LTSCALE
 40
1.0
  9
$ATTMODE
 70
     1
  9
$TEXTSIZE
 40
2.5
  9
$TRACEWID
 40
1.0
  9
$TEXTSTYLE
  7
STANDARD
  9
$CLAYER
  8
URIMAT
  9
$CELTYPE
  6
BYLAYER
  9
$CECOLOR
 62
   256
  9
$CELTSCALE
 40
1.0
  9
$DISPSILH
 70
     0
  9
$DIMSCALE
 40
1.0
  9
$DIMASZ
 40
2.5
  9
$DIMEXO
 40
0.625
  9
$DIMDLI
 40
3.75
  9
$DIMRND
 40
0.0
  9
$DIMDLE
 40
0.0
  9
$DIMEXE
 40
1.25
  9
$DIMTP
 40
0.0
  9
$DIMTM
 40
0.0
  9
$DIMTXT
 40
2.5
  9
$DIMCEN
 40
2.5
  9
$DIMTSZ
 40
0.0
  9
$DIMTOL
 70
     0
  9
$DIMLIM
 70
     0
  9
$DIMTIH
 70
     0
  9
$DIMTOH
 70
     0
  9
$DIMSE1
 70
     0
  9
$DIMSE2
 70
     0
  9
$DIMTAD
 70
     1
  9
$DIMZIN
 70
     8
  9
$DIMBLK
  1

  9
$DIMASO
 70
     1
  9
$DIMSHO
 70
     1
  9
$DIMPOST
  1

  9
$DIMAPOST
  1

  9
$DIMALT
 70
     0
  9
$DIMALTD
 70
     3
  9
$DIMALTF
 40
0.03937007874016
  9
$DIMLFAC
 40
1.0
  9
$DIMTOFL
 70
     1
  9
$DIMTVP
 40
0.0
  9
$DIMTIX
 70
     0
  9
$DIMSOXD
 70
     0
  9
$DIMSAH
 70
     0
  9
$DIMBLK1
  1

  9
$DIMBLK2
  1

  9
$DIMSTYLE
  2
ISO-25
  9
$DIMCLRD
 70
     0
  9
$DIMCLRE
 70
     0
  9
$DIMCLRT
 70
     0
  9
$DIMTFAC
 40
1.0
  9
$DIMGAP
 40
0.625
  9
$DIMJUST
 70
     0
  9
$DIMSD1
 70
     0
  9
$DIMSD2
 70
     0
  9
$DIMTOLJ
 70
     0
  9
$DIMTZIN
 70
     8
  9
$DIMALTZ
 70
     0
  9
$DIMALTTZ
 70
     0
  9
$DIMUPT
 70
     0
  9
$DIMDEC
 70
     2
  9
$DIMTDEC
 70
     2
  9
$DIMALTU
 70
     2
  9
$DIMALTTD
 70
     3
  9
$DIMTXSTY
  7
STANDARD
  9
$DIMAUNIT
 70
     0
  9
$DIMADEC
 70
     0
  9
$DIMALTRND
 40
0.0
  9
$DIMAZIN
 70
     0
  9
$DIMDSEP
 70
    46
  9
$DIMATFIT
 70
     3
  9
$DIMFRAC
 70
     0
  9
$DIMLDRBLK
  1

  9
$DIMLUNIT
 70
     2
  9
$DIMLWD
 70
    -2
  9
$DIMLWE
 70
    -2
  9
$DIMTMOVE
 70
     0
  9
$DIMFXL
 40
1.0
  9
$DIMFXLON
 70
     0
  9
$DIMJOGANG
 40
0.7853981633974483
  9
$DIMTFILL
 70
     0
  9
$DIMTFILLCLR
 70
     0
  9
$DIMARCSYM
 70
     0
  9
$DIMLTYPE
  6

  9
$DIMLTEX1
  6

  9
$DIMLTEX2
  6

  9
$DIMTXTDIRECTION
 70
     0
  9
$LUNITS
 70
     2
  9
$LUPREC
 70
     4
  9
$SKETCHINC
 40
1.0
  9
$FILLETRAD
 40
10.0
  9
$AUNITS
 70
     0
  9
$AUPREC
 70
     0
  9
$MENU
  1
.
  9
$ELEVATION
 40
0.0
  9
$PELEVATION
 40
0.0
  9
$THICKNESS
 40
0.0
  9
$LIMCHECK
 70
     0
  9
$CHAMFERA
 40
10.0
  9
$CHAMFERB
 40
10.0
  9
$CHAMFERC
 40
20.0
  9
$CHAMFERD
 40
0.0
  9
$SKPOLY
 70
     0
  9
$TDCREATE
 40
2460207.689282408
  9
$TDUCREATE
 40
2460207.314282408
  9
$TDUPDATE
 40
2460209.572303241
  9
$TDUUPDATE
 40
2460209.197303241
  9
$TDINDWG
 40
0.0219676042
  9
$TDUSRTIMER
 40
0.0219676042
  9
$USRTIMER
 70
     1
  9
$ANGBASE
 50
0.0
  9
$ANGDIR
 70
     0
  9
$PDMODE
 70
     0
  9
$PDSIZE
 40
0.0
  9
$PLINEWID
 40
0.0
  9
$SPLFRAME
 70
     0
  9
$SPLINETYPE
 70
     6
  9
$SPLINESEGS
 70
     8
  9
$HANDSEED
  5
54B
  9
$SURFTAB1
 70
     6
  9
$SURFTAB2
 70
     6
  9
$SURFTYPE
 70
     6
  9
$SURFU
 70
     6
  9
$SURFV
 70
     6
  9
$UCSBASE
  2

  9
$UCSNAME
  2

  9
$UCSORG
 10
0.0
 20
0.0
 30
0.0
  9
$UCSXDIR
 10
1.0
 20
0.0
 30
0.0
  9
$UCSYDIR
 10
0.0
 20
1.0
 30
0.0
  9
$UCSORTHOREF
  2

  9
$UCSORTHOVIEW
 70
     0
  9
$UCSORGTOP
 10
0.0
 20
0.0
 30
0.0
  9
$UCSORGBOTTOM
 10
0.0
 20
0.0
 30
0.0
  9
$UCSORGLEFT
 10
0.0
 20
0.0
 30
0.0
  9
$UCSORGRIGHT
 10
0.0
 20
0.0
 30
0.0
  9
$UCSORGFRONT
 10
0.0
 20
0.0
 30
0.0
  9
$UCSORGBACK
 10
0.0
 20
0.0
 30
0.0
  9
$PUCSBASE
  2

  9
$PUCSNAME
  2

  9
$PUCSORG
 10
0.0
 20
0.0
 30
0.0
  9
$PUCSXDIR
 10
1.0
 20
0.0
 30
0.0
  9
$PUCSYDIR
 10
0.0
 20
1.0
 30
0.0
  9
$PUCSORTHOREF
  2

  9
$PUCSORTHOVIEW
 70
     0
  9
$PUCSORGTOP
 10
0.0
 20
0.0
 30
0.0
  9
$PUCSORGBOTTOM
 10
0.0
 20
0.0
 30
0.0
  9
$PUCSORGLEFT
 10
0.0
 20
0.0
 30
0.0
  9
$PUCSORGRIGHT
 10
0.0
 20
0.0
 30
0.0
  9
$PUCSORGFRONT
 10
0.0
 20
0.0
 30
0.0
  9
$PUCSORGBACK
 10
0.0
 20
0.0
 30
0.0
  9
$USERI1
 70
     0
  9
$USERI2
 70
     0
  9
$USERI3
 70
     0
  9
$USERI4
 70
     0
  9
$USERI5
 70
     0
  9
$USERR1
 40
0.0
  9
$USERR2
 40
0.0
  9
$USERR3
 40
0.0
  9
$USERR4
 40
0.0
  9
$USERR5
 40
0.0
  9
$WORLDVIEW
 70
     1
  9
$SHADEDGE
 70
     3
  9
$SHADEDIF
 70
    70
  9
$TILEMODE
 70
     1
  9
$MAXACTVP
 70
    64
  9
$PINSBASE
 10
0.0
 20
0.0
 30
0.0
  9
$PLIMCHECK
 70
     0
  9
$PEXTMIN
 10
1.000000000000000E+20
 20
1.000000000000000E+20
 30
1.000000000000000E+20
  9
$PEXTMAX
 10
-1.000000000000000E+20
 20
-1.000000000000000E+20
 30
-1.000000000000000E+20
  9
$PLIMMIN
 10
0.0
 20
0.0
  9
$PLIMMAX
 10
420.0
 20
297.0
  9
$UNITMODE
 70
     0
  9
$VISRETAIN
 70
     1
  9
$PLINEGEN
 70
     0
  9
$PSLTSCALE
 70
     1
  9
$TREEDEPTH
 70
  3020
  9
$CMLSTYLE
  2
STANDARD
  9
$CMLJUST
 70
     0
  9
$CMLSCALE
 40
20.0
  9
$PROXYGRAPHICS
 70
     1
  9
$MEASUREMENT
 70
     1
  9
$CELWEIGHT
370
    -1
  9
$ENDCAPS
280
     0
  9
$JOINSTYLE
280
     0
  9
$LWDISPLAY
290
     0
  9
$INSUNITS
 70
     4
  9
$HYPERLINKBASE
  1

  9
$STYLESHEET
  1

  9
$XEDIT
290
     1
  9
$CEPSNTYPE
380
     0
  9
$PSTYLEMODE
290
     1
  9
$FINGERPRINTGUID
  2
{70B7936F-0D59-4EE8-A687-74E0A98D0CE2}
  9
$VERSIONGUID
  2
{D079931D-038B-8B43-8352-7FC321E11FA6}
  9
$EXTNAMES
290
     1
  9
$PSVPSCALE
 40
0.0
  9
$OLESTARTUP
290
     0
  9
$SORTENTS
280
   127
  9
$INDEXCTL
280
     0
  9
$HIDETEXT
280
     1
  9
$XCLIPFRAME
280
     2
  9
$HALOGAP
280
     0
  9
$OBSCOLOR
 70
   257
  9
$OBSLTYPE
280
     0
  9
$INTERSECTIONDISPLAY
280
     0
  9
$INTERSECTIONCOLOR
 70
   257
  9
$DIMASSOC
280
     2
  9
$PROJECTNAME
  1

  9
$CAMERADISPLAY
290
     0
  9
$LENSLENGTH
 40
50.0
  9
$CAMERAHEIGHT
 40
0.0
  9
$STEPSPERSEC
 40
2.0
  9
$STEPSIZE
 40
6.0
  9
$3DDWFPREC
 40
2.0
  9
$PSOLWIDTH
 40
5.0
  9
$PSOLHEIGHT
 40
80.0
  9
$LOFTANG1
 40
1.570796326794896
  9
$LOFTANG2
 40
1.570796326794896
  9
$LOFTMAG1
 40
0.0
  9
$LOFTMAG2
 40
0.0
  9
$LOFTPARAM
 70
     7
  9
$LOFTNORMALS
280
     1
  9
$LATITUDE
 40
37.795
  9
$LONGITUDE
 40
-122.394
  9
$NORTHDIRECTION
 40
0.0
  9
$TIMEZONE
 70
 -8000
  9
$LIGHTGLYPHDISPLAY
280
     1
  9
$TILEMODELIGHTSYNCH
280
     1
  9
$CMATERIAL
347
3C
  9
$SOLIDHIST
280
     0
  9
$SHOWHIST
280
     1
  9
$DWFFRAME
280
     2
  9
$DGNFRAME
280
     0
  9
$REALWORLDSCALE
290
     1
  9
$INTERFERECOLOR
 62
     1
  9
$INTERFEREOBJVS
345
33
  9
$INTERFEREVPVS
346
486
  9
$CSHADOW
280
     0
  9
$SHADOWPLANELOCATION
 40
0.0
  0
ENDSEC
  0
SECTION
  2
CLASSES
  0
CLASS
  1
ACDBDICTIONARYWDFLT
  2
AcDbDictionaryWithDefault
  3
ObjectDBX Classes
 90
        0
 91
        1
280
     0
281
     0
  0
CLASS
  1
VISUALSTYLE
  2
AcDbVisualStyle
  3
ObjectDBX Classes
 90
     4095
 91
       42
280
     0
281
     0
  0
CLASS
  1
MATERIAL
  2
AcDbMaterial
  3
ObjectDBX Classes
 90
     1153
 91
        3
280
     0
281
     0
  0
CLASS
  1
SUN
  2
AcDbSun
  3
SCENEOE
 90
     1153
 91
        0
280
     0
281
     0
  0
CLASS
  1
DICTIONARYVAR
  2
AcDbDictionaryVar
  3
ObjectDBX Classes
 90
        0
 91
       31
280
     0
281
     0
  0
CLASS
  1
XRECORD
  2
AcDbXrecord
  3
ObjectDBX Classes
 90
        0
 91
       69
280
     0
281
     0
  0
CLASS
  1
LWPOLYLINE
  2
AcDbPolyline
  3
ObjectDBX Classes
 90
        0
 91
        1
280
     0
281
     1
  0
CLASS
  1
HATCH
  2
AcDbHatch
  3
ObjectDBX Classes
 90
        0
 91
        0
280
     0
281
     1
  0
CLASS
  1
ACDBPLACEHOLDER
  2
AcDbPlaceHolder
  3
ObjectDBX Classes
 90
        0
 91
        1
280
     0
281
     0
  0
CLASS
  1
LAYOUT
  2
AcDbLayout
  3
ObjectDBX Classes
 90
        0
 91
        2
280
     0
281
     0
  0
CLASS
  1
TABLESTYLE
  2
AcDbTableStyle
  3
ObjectDBX Classes
 90
     4095
 91
        1
280
     0
281
     0
  0
CLASS
  1
SCALE
  2
AcDbScale
  3
ObjectDBX Classes
 90
     1153
 91
       17
280
     0
281
     0
  0
CLASS
  1
MLEADERSTYLE
  2
AcDbMLeaderStyle
  3
ACDB_MLEADERSTYLE_CLASS
 90
     4095
 91
        1
280
     0
281
     0
  0
CLASS
  1
ACDBSECTIONVIEWSTYLE
  2
AcDbSectionViewStyle
  3
ObjectDBX Classes
 90
     1025
 91
        1
280
     0
281
     0
  0
CLASS
  1
ACDBDETAILVIEWSTYLE
  2
AcDbDetailViewStyle
  3
ObjectDBX Classes
 90
     1025
 91
        1
280
     0
281
     0
  0
CLASS
  1
EXACXREFPANELOBJECT
  2
ExAcXREFPanelObject
  3
EXAC_ESW
 90
     1025
 91
        1
280
     0
281
     0
  0
CLASS
  1
NPOCOLLECTION
  2
AcDbImpNonPersistentObjectsCollection
  3
ObjectDBX Classes
 90
     1153
 91
        1
280
     0
281
     0
  0
CLASS
  1
SORTENTSTABLE
  2
AcDbSortentsTable
  3
ObjectDBX Classes
 90
        0
 91
        5
280
     0
281
     0
  0
CLASS
  1
CELLSTYLEMAP
  2
AcDbCellStyleMap
  3
ObjectDBX Classes
 90
     1152
 91
        1
280
     0
281
     0
  0
ENDSEC
  0
SECTION
  2
TABLES
  0
TABLE
  2
VPORT
  5
8
330
0
100
AcDbSymbolTable
 70
     1
  0
VPORT
  5
29
330
8
100
AcDbSymbolTableRecord
100
AcDbViewportTableRecord
  2
*ACTIVE
 70
     0
 10
0.0
 20
0.0
 11
1.0
 21
1.0
 12
1345.477815169011
 22
1240.162415114606
 13
0.0
 23
0.0
 14
10.0
 24
10.0
 15
10.0
 25
10.0
 16
0.0
 26
0.0
 36
1.0
 17
0.0
 27
0.0
 37
0.0
 40
2690.312154696949
 41
1.793181818181818
 42
50.0
 43
0.0
 44
0.0
 50
0.0
 51
0.0
 71
     0
 72
  1000
 73
     1
 74
     3
 75
     0
 76
     0
 77
     0
 78
     0
281
     0
 65
     1
110
0.0
120
0.0
130
0.0
111
1.0
121
0.0
131
0.0
112
0.0
122
1.0
132
0.0
 79
     0
146
0.0
348
2F
 60
     3
 61
     5
292
     1
282
     1
141
0.0
142
0.0
 63
   250
421
  3355443
1001
ACAD_NAV_VCDISPLAY
1070
     3
  0
ENDTAB
  0
TABLE
  2
LTYPE
  5
5
330
0
100
AcDbSymbolTable
 70
     9
  0
LTYPE
  5
14
330
5
100
AcDbSymbolTableRecord
100
AcDbLinetypeTableRecord
  2
BYBLOCK
 70
     0
  3

 72
    65
 73
     0
 40
0.0
  0
LTYPE
  5
15
330
5
100
AcDbSymbolTableRecord
100
AcDbLinetypeTableRecord
  2
BYLAYER
 70
     0
  3

 72
    65
 73
     0
 40
0.0
  0
LTYPE
  5
16
330
5
100
AcDbSymbolTableRecord
100
AcDbLinetypeTableRecord
  2
CONTINUOUS
 70
     0
  3
Solid line
 72
    65
 73
     0
 40
0.0
  0
LTYPE
  5
41
330
5
100
AcDbSymbolTableRecord
100
AcDbLinetypeTableRecord
  2
EXLTYPE2
 70
     0
  3
点線
 72
    65
 73
     2
 40
2.0
 49
1.0
 74
     0
 49
-1.0
 74
     0
  0
ENDTAB
  0
TABLE
  2
LAYER
  5
2
102
{ACAD_XDICTIONARY
360
4B3
102
}
330
0
100
AcDbSymbolTable
 70
     7
  0
LAYER
  5
10
102
{ACAD_XDICTIONARY
360
500
102
}
330
2
100
AcDbSymbolTableRecord
100
AcDbLayerTableRecord
  2
0
 70
     0
 62
     7
  6
CONTINUOUS
370
    -3
390
485
347
3E
  0
LAYER
  5
4A
102
{ACAD_XDICTIONARY
360
502
102
}
330
2
100
AcDbSymbolTableRecord
100
AcDbLayerTableRecord
  2
スト_ル
 70
     0
 62
     7
  6
CONTINUOUS
370
    -3
390
485
347
3E
  0
LAYER
  5
4C
102
{ACAD_XDICTIONARY
360
504
102
}
330
2
100
AcDbSymbolTableRecord
100
AcDbLayerTableRecord
  2
寸法
 70
     0
 62
     7
  6
CONTINUOUS
370
    -3
390
485
347
3E
  0
LAYER
  5
ED
330
2
100
AcDbSymbolTableRecord
100
AcDbLayerTableRecord
  2
DEFPOINTS
 70
     0
 62
     7
  6
CONTINUOUS
290
     0
370
    -3
390
485
347
3E
  0
LAYER
  5
4B0
102
{ACAD_XDICTIONARY
360
4B1
102
}
330
2
100
AcDbSymbolTableRecord
100
AcDbLayerTableRecord
  2
URIMAT
 70
     0
 62
     7
  6
CONTINUOUS
370
    -3
390
485
347
3E
  0
ENDTAB
  0
TABLE
  2
STYLE
  5
3
330
0
100
AcDbSymbolTable
 70
     4
  0
STYLE
  5
11
330
3
100
AcDbSymbolTableRecord
100
AcDbTextStyleTableRecord
  2
STANDARD
 70
     0
 40
0.0
 41
1.0
 50
0.0
 71
     0
 42
2.5
  3
monotxt
  4
extfont
  0
STYLE
  5
EB
330
3
100
AcDbSymbolTableRecord
100
AcDbTextStyleTableRecord
  2
EXCADDIM1
 70
     0
 40
0.0
 41
0.84
 50
0.0
 71
     0
 42
0.2
  3
monotxt
  4
extfont
  0
ENDTAB
  0
TABLE
  2
VIEW
  5
6
330
0
100
AcDbSymbolTable
 70
     0
  0
ENDTAB
  0
TABLE
  2
UCS
  5
7
330
0
100
AcDbSymbolTable
 70
     0
  0
ENDTAB
  0
TABLE
  2
APPID
  5
9
330
0
100
AcDbSymbolTable
 70
     3
  0
APPID
  5
12
330
9
100
AcDbSymbolTableRecord
100
AcDbRegAppTableRecord
  2
ACAD
 70
     0
  0
APPID
  5
4B2
330
9
100
AcDbSymbolTableRecord
100
AcDbRegAppTableRecord
  2
ACAD_NAV_VCDISPLAY
 70
     0
  0
APPID
  5
4E3
330
9
100
AcDbSymbolTableRecord
100
AcDbRegAppTableRecord
  2
ACAD_EXEMPT_FROM_CAD_STANDARDS
 70
     0
  0
ENDTAB
  0
TABLE
  2
DIMSTYLE
  5
A
330
0
100
AcDbSymbolTable
 70
     2
100
AcDbDimStyleTable
 71
     0
  0
DIMSTYLE
105
27
330
A
100
AcDbSymbolTableRecord
100
AcDbDimStyleTableRecord
  2
ISO-25
 70
     0
 41
2.5
 42
0.625
 43
3.75
 44
1.25
 73
     0
 74
     0
 77
     1
 78
     8
140
2.5
141
2.5
143
0.03937007874016
147
0.625
171
     3
172
     1
271
     2
272
     2
274
     3
283
     0
284
     8
340
11
  0
ENDTAB
  0
TABLE
  2
BLOCK_RECORD
  5
1
330
0
100
AcDbSymbolTable
 70
    32
  0
BLOCK_RECORD
  5
1F
330
1
100
AcDbSymbolTableRecord
100
AcDbBlockTableRecord
  2
*MODEL_SPACE
340
4AA
 70
     0
280
     1
281
     0
  0
BLOCK_RECORD
  5
1B
330
1
100
AcDbSymbolTableRecord
100
AcDbBlockTableRecord
  2
*PAPER_SPACE
340
4AB
 70
     0
280
     1
281
     0
  0
BLOCK_RECORD
  5
4D
330
1
100
AcDbSymbolTableRecord
100
AcDbBlockTableRecord
  2
EX_NORM
340
0
 70
     0
280
     1
281
     0
  0
ENDTAB
  0
ENDSEC
  0
SECTION
  2
BLOCKS
  0
BLOCK
  5
20
330
1F
100
AcDbEntity
  8
0
100
AcDbBlockBegin
  2
*MODEL_SPACE
 70
     0
 10
0.0
 20
0.0
 30
0.0
  3
*MODEL_SPACE
  1

  0
ENDBLK
  5
21
330
1F
100
AcDbEntity
  8
0
100
AcDbBlockEnd
  0
BLOCK
  5
1C
330
1B
100
AcDbEntity
 67
     1
  8
0
100
AcDbBlockBegin
  2
*PAPER_SPACE
 70
     0
 10
0.0
 20
0.0
 30
0.0
  3
*PAPER_SPACE
  1

  0
ENDBLK
  5
1D
330
1B
100
AcDbEntity
 67
     1
  8
0
100
AcDbBlockEnd
  0
BLOCK
  5
4E
330
4D
100
AcDbEntity
  8
0
100
AcDbBlockBegin
  2
EX_NORM
 70
     0
 10
0.0
 20
0.0
 30
0.0
  3
EX_NORM
  1

  0
LINE
  5
77
330
4D
100
AcDbEntity
  8
0
  6
Continuous
 62
     0
100
AcDbLine
 10
0.0
 20
0.0
 30
0.0
 11
-1.0
 21
0.0
 31
0.0
  0
LINE
  5
78
330
4D
100
AcDbEntity
  8
0
  6
Continuous
 62
     0
100
AcDbLine
 10
0.0
 20
0.0
 30
0.0
 11
-1.0
 21
0.166666667
 31
0.0
  0
LINE
  5
79
330
4D
100
AcDbEntity
  8
0
  6
Continuous
 62
     0
100
AcDbLine
 10
0.0
 20
0.0
 30
0.0
 11
-1.0
 21
-0.166666667
 31
0.0
  0
ENDBLK
  5
4F
330
4D
100
AcDbEntity
  8
0
100
AcDbBlockEnd
  0
ENDSEC
  0
SECTION
  2
ENTITIES
  0
LINE
  5
FA
330
1F
100
AcDbEntity
  8
URIMAT
  6
Continuous
 62
     7
100
AcDbLine
 10
459.5962925017397
 20
1860.375814402638
 30
0.0
 11
536.424185597361
 21
1937.20370749826
 31
0.0
  0
LINE
  5
FB
330
1F
100
AcDbEntity
  8
URIMAT
  6
Continuous
 62
     7
100
AcDbLine
 10
464.9974533258369
 20
1858.705907414871
 30
0.0
 11
538.094092585129
 21
1931.802546674163
 31
0.0
  0
LINE
  5
FC
330
1F
100
AcDbEntity
  8
URIMAT
  6
Continuous
 62
     7
100
AcDbLine
 10
470.8624809592388
 20
1857.499867236407
 30
0.0
 11
539.3001327635927
 21
1925.937519040761
 31
0.0
  0
LINE
  5
FD
330
1F
100
AcDbEntity
  8
URIMAT
  6
Continuous
 62
     7
100
AcDbLine
 10
477.2947012411886
 20
1856.861019706492
 30
0.0
 11
539.9389802935083
 21
1919.505298758811
 31
0.0
  0
LINE
  5
FE
330
1F
100
AcDbEntity
  8
URIMAT
  6
Continuous
 62
     7
100
AcDbLine
 10
484.4716087361013
 20
1856.966859389539
 30
0.0
 11
539.8331406104611
 21
1912.328391263899
 31
0.0
  0
LINE
  5
FF
330
1F
100
AcDbEntity
  8
URIMAT
  6
Continuous
 62
     7
100
AcDbLine
 10
492.7450844016706
 20
1858.169267243243
 30
0.0
 11
538.6307327567571
 21
1904.054915598329
 31
0.0
  0
LINE
  5
100
330
1F
100
AcDbEntity
  8
URIMAT
  6
Continuous
 62
     7
100
AcDbLine
 10
503.0518142549905
 20
1861.404929284697
 30
0.0
 11
535.395070715303
 21
1893.74818574501
 31
0.0
  0
LINE
  5
101
330
1F
100
AcDbEntity
  8
URIMAT
  6
Continuous
 62
     7
100
AcDbLine
 10
440.2096009882316
 20
1871.8920480707
 30
0.0
 11
435.0920480707009
 21
1877.009600988231
 31
0.0
  0
LINE
  5
102
330
1F
100
AcDbEntity
  8
URIMAT
  6
Continuous
 62
     7
100
AcDbLine
 10
458.3182359885063
 20
1860.854480882291
 30
0.0
 11
424.0544808822915
 21
1895.118235988506
 31
0.0
  0
LINE
  5
103
330
1F
100
AcDbEntity
  8
URIMAT
  6
Continuous
 62
     7
100
AcDbLine
 10
468.2899877252062
 20
1857.953796957457
 30
0.0
 11
421.1537969574573
 21
1905.089987725205
 31
0.0
  0
LINE
  5
104
330
1F
100
AcDbEntity
  8
URIMAT
  6
Continuous
 62
     7
100
AcDbLine
 10
476.4071866645776
 20
1856.90766582995
 30
0.0
 11
420.1076658299511
 21
1913.207186664577
 31
0.0
  0
LINE
  5
105
330
1F
100
AcDbEntity
  8
URIMAT
  6
Continuous
 62
     7
100
AcDbLine
 10
483.4846452311616
 20
1856.901275075232
 30
0.0
 11
420.1012750752329
 21
1920.284645231161
 31
0.0
  0
LINE
  5
106
330
1F
100
AcDbEntity
  8
URIMAT
  6
Continuous
 62
     7
100
AcDbLine
 10
489.8439513878343
 20
1857.613036730425
 30
0.0
 11
420.8130367304256
 21
1926.643951387834
 31
0.0
  0
LINE
  5
107
330
1F
100
AcDbEntity
  8
URIMAT
  6
Continuous
 62
     7
100
AcDbLine
 10
495.6508555822728
 20
1858.877200347851
 30
0.0
 11
422.0772003478523
 21
1932.450855582272
 31
0.0
  0
LINE
  5
108
330
1F
100
AcDbEntity
  8
URIMAT
  6
Continuous
 62
     7
100
AcDbLine
 10
501.0029888907182
 20
1860.596134851272
 30
0.0
 11
423.7961348512722
 21
1937.802988890718
 31
0.0
  0
LINE
  5
109
330
1F
100
AcDbEntity
  8
URIMAT
  6
Continuous
 62
     7
100
AcDbLine
 10
460.6501858050846
 20
1929.233209184368
 30
0.0
 11
434.2564737897249
 21
1955.626921199726
 31
0.0
  0
LINE
  5
10A
330
1F
100
AcDbEntity
  8
URIMAT
  6
Continuous
 62
     7
100
AcDbLine
 10
458.3233078633806
 20
1924.489019314206
 30
0.0
 11
431.1601810784822
 21
1951.652146099105
 31
0.0
  0
LINE
  5
10B
330
1F
100
AcDbEntity
  8
URIMAT
  6
Continuous
 62
     7
100
AcDbLine
 10
426.074403633634
 20
1890.493535841323
 30
0.0
 11
457.5999808217507
 21
1922.019113029439
 31
0.0
  0
LINE
  5
10C
330
1F
100
AcDbEntity
  8
URIMAT
  6
Continuous
 62
     7
100
AcDbLine
 10
457.0757774963864
 20
1918.665481869335
 30
0.0
 11
428.3715742104471
 21
1947.369685155274
 31
0.0
  0
LINE
  5
10D
330
1F
100
AcDbEntity
  8
URIMAT
  6
Continuous
 62
     7
100
AcDbLine
 10
428.5623398959346
 20
1885.910404291758
 30
0.0
 11
457.1186579226462
 21
1914.466722318469
 31
0.0
  0
LINE
  5
10E
330
1F
100
AcDbEntity
  8
URIMAT
  6
Continuous
 62
     7
100
AcDbLine
 10
457.7694072452841
 20
1910.900784308571
 30
0.0
 11
425.9078741746757
 21
1942.76231737918
 31
0.0
  0
LINE
  5
10F
330
1F
100
AcDbEntity
  8
URIMAT
  6
Continuous
 62
     7
100
AcDbLine
 10
431.3736437922838
 20
1881.650640376242
 30
0.0
 11
458.4597234104986
 21
1908.736719994457
 31
0.0
  0
LINE
  5
110
330
1F
100
AcDbEntity
  8
URIMAT
  6
Continuous
 62
     7
100
AcDbLine
 10
434.4917047543362
 20
1877.697633526428
 30
0.0
 11
460.8520985133653
 21
1904.058027285457
 31
0.0
  0
LINE
  5
111
330
1F
100
AcDbEntity
  8
URIMAT
  6
Continuous
 62
     7
100
AcDbLine
 10
437.9074661315098
 20
1874.042327091737
 30
0.0
 11
464.0725142458584
 21
1900.207375206085
 31
0.0
  0
LINE
  5
112
330
1F
100
AcDbEntity
  8
URIMAT
  6
Continuous
 62
     7
100
AcDbLine
 10
441.6183960198837
 20
1870.682189168245
 30
0.0
 11
468.0713386973322
 21
1897.135131845693
 31
0.0
  0
LINE
  5
113
330
1F
100
AcDbEntity
  8
URIMAT
  6
Continuous
 62
     7
100
AcDbLine
 10
445.6282120884361
 20
1867.620937424932
 30
0.0
 11
472.9230933412833
 21
1894.915818677779
 31
0.0
  0
LINE
  5
114
330
1F
100
AcDbEntity
  8
URIMAT
  6
Continuous
 62
     7
100
AcDbLine
 10
505.9623173791805
 20
1862.707874174676
 30
0.0
 11
474.1007843085717
 21
1894.569407245284
 31
0.0
  0
LINE
  5
115
330
1F
100
AcDbEntity
  8
URIMAT
  6
Continuous
 62
     7
100
AcDbLine
 10
449.9472874967221
 20
1864.868945021353
 30
0.0
 11
478.9044492785939
 21
1893.826106803225
 31
0.0
  0
LINE
  5
116
330
1F
100
AcDbEntity
  8
URIMAT
  6
Continuous
 62
     7
100
AcDbLine
 10
510.5696851552746
 20
1865.171574210446
 30
0.0
 11
481.8654818693353
 21
1893.875777496386
 31
0.0
  0
LINE
  5
117
330
1F
100
AcDbEntity
  8
URIMAT
  6
Continuous
 62
     7
100
AcDbLine
 10
454.5938461884079
 20
1862.444435901172
 30
0.0
 11
487.0596588858156
 21
1894.910248598581
 31
0.0
  0
LINE
  5
118
330
1F
100
AcDbEntity
  8
URIMAT
  6
Continuous
 62
     7
100
AcDbLine
 10
514.8521460991048
 20
1867.960181078482
 30
0.0
 11
487.6890193142061
 21
1895.123307863381
 31
0.0
  0
LINE
  5
119
330
1F
100
AcDbEntity
  8
URIMAT
  6
Continuous
 62
     7
100
AcDbLine
 10
518.8269211997277
 20
1871.056473789724
 30
0.0
 11
492.4332091843679
 21
1897.450185805084
 31
0.0
  0
LINE
  5
11A
330
1F
100
AcDbEntity
  8
URIMAT
  6
Continuous
 62
     7
100
AcDbLine
 10
522.5035679772566
 20
1874.450894824061
 30
0.0
 11
496.3405039898629
 21
1900.613958811455
 31
0.0
  0
LINE
  5
11B
330
1F
100
AcDbEntity
  8
URIMAT
  6
Continuous
 62
     7
100
AcDbLine
 10
525.885072161547
 20
1878.140458451636
 30
0.0
 11
499.4698749688058
 21
1904.555655644377
 31
0.0
  0
LINE
  5
11C
330
1F
100
AcDbEntity
  8
URIMAT
  6
Continuous
 62
     7
100
AcDbLine
 10
501.8897514014186
 20
1909.740341114183
 30
0.0
 11
534.3555640988275
 21
1942.206153811592
 31
0.0
  0
LINE
  5
11D
330
1F
100
AcDbEntity
  8
URIMAT
  6
Continuous
 62
     7
100
AcDbLine
 10
528.9681726983233
 20
1882.128425726724
 30
0.0
 11
501.7565783161088
 21
1909.34002010894
 31
0.0
  0
LINE
  5
11E
330
1F
100
AcDbEntity
  8
URIMAT
  6
Continuous
 62
     7
100
AcDbLine
 10
531.7430063918799
 20
1886.424659845034
 30
0.0
 11
502.945795029055
 21
1915.221871207859
 31
0.0
  0
LINE
  5
11F
330
1F
100
AcDbEntity
  8
URIMAT
  6
Continuous
 62
     7
100
AcDbLine
 10
502.9738931967749
 20
1917.895550721405
 30
0.0
 11
531.9310549786473
 21
1946.852712503278
 31
0.0
  0
LINE
  5
120
330
1F
100
AcDbEntity
  8
URIMAT
  6
Continuous
 62
     7
100
AcDbLine
 10
534.1919776649984
 20
1891.046756383781
 30
0.0
 11
502.1130101266392
 21
1923.12572392214
 31
0.0
  0
LINE
  5
121
330
1F
100
AcDbEntity
  8
URIMAT
  6
Continuous
 62
     7
100
AcDbLine
 10
501.8841813222201
 20
1923.876906658716
 30
0.0
 11
529.1790625750679
 21
1951.171787911564
 31
0.0
  0
LINE
  5
122
330
1F
100
AcDbEntity
  8
URIMAT
  6
Continuous
 62
     7
100
AcDbLine
 10
499.664868154306
 20
1928.728661302667
 30
0.0
 11
526.1178108317552
 21
1955.181603980116
 31
0.0
  0
LINE
  5
123
330
1F
100
AcDbEntity
  8
URIMAT
  6
Continuous
 62
     7
100
AcDbLine
 10
496.5926247939143
 20
1932.72748575414
 30
0.0
 11
522.7576729082632
 21
1958.89253386849
 31
0.0
  0
LINE
  5
125
330
1F
100
AcDbEntity
  8
URIMAT
  6
Continuous
 62
     7
100
AcDbLine
 10
483.9453348264781
 20
1976.648738281629
 30
0.0
 11
483.922422006765
 21
1976.671651101342
 31
0.0
  0
LINE
  5
126
330
1F
100
AcDbEntity
  8
URIMAT
  6
Continuous
 62
     7
100
AcDbLine
 10
423.7426221320898
 20
1937.659229022837
 30
0.0
 11
459.1407709771623
 21
1973.05737786791
 31
0.0
  0
LINE
  5
127
330
1F
100
AcDbEntity
  8
URIMAT
  6
Continuous
 62
     7
100
AcDbLine
 10
421.031341172683
 20
1927.876880251564
 30
0.0
 11
468.9231197484355
 21
1975.768658827316
 31
0.0
  0
LINE
  5
128
330
1F
100
AcDbEntity
  8
URIMAT
  6
Continuous
 62
     7
100
AcDbLine
 10
420.0776805410496
 20
1919.852151808065
 30
0.0
 11
476.9478481919349
 21
1976.72231945895
 31
0.0
  0
LINE
  5
129
330
1F
100
AcDbEntity
  8
URIMAT
  6
Continuous
 62
     7
100
AcDbLine
 10
420.131181069697
 20
1912.834584524848
 30
0.0
 11
483.9654154751523
 21
1976.668818930303
 31
0.0
  0
LINE
  5
12A
330
1F
100
AcDbEntity
  8
URIMAT
  6
Continuous
 62
     7
100
AcDbLine
 10
420.8872797717368
 20
1906.519615415022
 30
0.0
 11
490.2803845849784
 21
1975.912720228263
 31
0.0
  0
LINE
  5
12B
330
1F
100
AcDbEntity
  8
URIMAT
  6
Continuous
 62
     7
100
AcDbLine
 10
422.1870072741883
 20
1900.748275105608
 30
0.0
 11
496.0517248943918
 21
1974.612992725811
 31
0.0
  0
LINE
  5
12C
330
1F
100
AcDbEntity
  8
URIMAT
  6
Continuous
 62
     7
100
AcDbLine
 10
423.9360737470264
 20
1895.426273766581
 30
0.0
 11
501.3737262334191
 21
1972.863926252973
 31
0.0
  0
LINE
  5
12D
330
1F
100
AcDbEntity
  8
URIMAT
  6
Continuous
 62
     7
100
AcDbLine
 10
474.7808869705598
 20
1939.200019178248
 30
0.0
 11
506.3064641586771
 21
1970.725596366366
 31
0.0
  0
LINE
  5
12E
330
1F
100
AcDbEntity
  8
URIMAT
  6
Continuous
 62
     7
100
AcDbLine
 10
539.8716511013422
 20
1920.722422006765
 30
0.0
 11
483.9224220067658
 21
1976.671651101342
 31
0.0
  0
LINE
  5
12F
330
1F
100
AcDbEntity
  8
URIMAT
  6
Continuous
 62
     7
100
AcDbLine
 10
538.767800276684
 20
1928.897340643288
 30
0.0
 11
492.0973406432886
 21
1975.567800276684
 31
0.0
  0
LINE
  5
130
330
1F
100
AcDbEntity
  8
URIMAT
  6
Continuous
 62
     7
100
AcDbLine
 10
535.7456739791508
 20
1938.990534752687
 30
0.0
 11
502.1905347526866
 21
1972.545673979151
 31
0.0
  0
LINE
  5
131
330
1F
100
AcDbEntity
  8
URIMAT
  6
Continuous
 62
     7
100
AcDbLine
 10
492.7419727145419
 20
1935.947901486634
 30
0.0
 11
519.1023664735713
 21
1962.308295245663
 31
0.0
  0
LINE
  5
132
330
1F
100
AcDbEntity
  8
URIMAT
  6
Continuous
 62
     7
100
AcDbLine
 10
488.063280005543
 20
1938.3402765895
 30
0.0
 11
515.1493596237586
 21
1965.426356207716
 31
0.0
  0
LINE
  5
133
330
1F
100
AcDbEntity
  8
URIMAT
  6
Continuous
 62
     7
100
AcDbLine
 10
482.3332776815298
 20
1939.681342077353
 30
0.0
 11
510.8895957082419
 21
1968.237660104065
 31
0.0
  0
LINE
  5
134
330
1F
100
AcDbEntity
  8
URIMAT
  6
Continuous
 62
     7
100
AcDbLine
 10
539.9150312549288
 20
1913.607974041313
 30
0.0
 11
476.8079740413137
 21
1976.715031254928
 31
0.0
  0
LINE
  5
135
330
1F
100
AcDbEntity
  8
URIMAT
  6
Continuous
 62
     7
100
AcDbLine
 10
539.2304928053386
 20
1907.221444679037
 30
0.0
 11
470.4214446790378
 21
1976.030492805338
 31
0.0
  0
LINE
  5
136
330
1F
100
AcDbEntity
  8
URIMAT
  6
Continuous
 62
     7
100
AcDbLine
 10
537.9880830508641
 20
1901.392786621647
 30
0.0
 11
464.592786621647
 21
1974.788083050864
 31
0.0
  0
LINE
  5
137
330
1F
100
AcDbEntity
  8
URIMAT
  6
Continuous
 62
     7
100
AcDbLine
 10
536.2875298693715
 20
1896.022271991274
 30
0.0
 11
459.2222719912741
 21
1973.087529869371
 31
0.0
  0
LINE
  5
138
330
1F
100
AcDbEntity
  8
URIMAT
  6
Continuous
 62
     7
100
AcDbLine
 10
486.3257239221405
 20
1938.913010126638
 30
0.0
 11
454.2467563837813
 21
1970.991977664998
 31
0.0
  0
LINE
  5
139
330
1F
100
AcDbEntity
  8
URIMAT
  6
Continuous
 62
     7
100
AcDbLine
 10
478.4218712078593
 20
1939.745795029055
 30
0.0
 11
449.6246598450343
 21
1968.54300639188
 31
0.0
  0
LINE
  5
13A
330
1F
100
AcDbEntity
  8
URIMAT
  6
Continuous
 62
     7
100
AcDbLine
 10
472.5400201089402
 20
1938.556578316108
 30
0.0
 11
445.3284257267259
 21
1965.768172698323
 31
0.0
  0
LINE
  5
13B
330
1F
100
AcDbEntity
  8
URIMAT
  6
Continuous
 62
     7
100
AcDbLine
 10
467.7556556443778
 20
1936.269874968805
 30
0.0
 11
441.3404584516366
 21
1962.685072161546
 31
0.0
  0
LINE
  5
13C
330
1F
100
AcDbEntity
  8
URIMAT
  6
Continuous
 62
     7
100
AcDbLine
 10
463.8139588114549
 20
1933.140503989863
 30
0.0
 11
437.6508948240612
 21
1959.303567977256
 31
0.0
  0
LINE
  5
13D
330
1F
100
AcDbEntity
  8
URIMAT
  6
Continuous
 62
     7
100
AcDbLine
 10
432.6043839809472
 20
1953.59205868356
 30
0.0
 11
443.2079413164431
 21
1964.195616019055
 31
0.0
  0
ARC
  5
142
330
1F
100
AcDbEntity
  8
URIMAT
  6
Continuous
 62
     7
100
AcDbCircle
 10
479.9999999999908
 20
-941.0000000000009
 30
0.0
 40
2500.0
100
AcDbArc
 50
86.10049042438706
 51
86.10087812361724
  0
ARC
  5
143
330
1F
100
AcDbEntity
  8
URIMAT
  6
Continuous
 62
     7
100
AcDbCircle
 10
479.99999999999
 20
-941.0000000000009
 30
0.0
 40
2500.0
100
AcDbArc
 50
93.89912187638277
 51
93.89950957561293
  0
CIRCLE
  5
147
330
1F
100
AcDbEntity
  8
URIMAT
  6
EXLTYPE2
 62
     7
100
AcDbCircle
 10
589.999999999979
 20
1439.000000000012
 30
0.0
 40
8.0
  0
LINE
  5
148
330
1F
100
AcDbEntity
  8
URIMAT
  6
EXLTYPE2
 62
     7
100
AcDbLine
 10
590.499999999979
 20
1436.500000000012
 30
0.0
 11
590.499999999979
 21
1435.850000000012
 31
0.0
  0
LINE
  5
149
330
1F
100
AcDbEntity
  8
URIMAT
  6
EXLTYPE2
 62
     7
100
AcDbLine
 10
590.4999999999786
 20
1442.150000000011
 30
0.0
 11
590.499999999979
 21
1441.500000000012
 31
0.0
  0
LINE
  5
14A
330
1F
100
AcDbEntity
  8
URIMAT
  6
EXLTYPE2
 62
     7
100
AcDbLine
 10
589.499999999979
 20
1436.500000000012
 30
0.0
 11
589.499999999979
 21
1435.850000000012
 31
0.0
  0
LINE
  5
14B
330
1F
100
AcDbEntity
  8
URIMAT
  6
EXLTYPE2
 62
     7
100
AcDbLine
 10
589.4999999999786
 20
1442.150000000011
 30
0.0
 11
589.499999999979
 21
1441.500000000012
 31
0.0
  0
LINE
  5
14C
330
1F
100
AcDbEntity
  8
URIMAT
  6
EXLTYPE2
 62
     7
100
AcDbLine
 10
587.4999999999791
 20
1438.500000000012
 30
0.0
 11
586.8499999999785
 21
1438.500000000012
 31
0.0
  0
LINE
  5
14D
330
1F
100
AcDbEntity
  8
URIMAT
  6
EXLTYPE2
 62
     7
100
AcDbLine
 10
593.1499999999787
 20
1438.500000000012
 30
0.0
 11
592.4999999999791
 21
1438.500000000012
 31
0.0
  0
LINE
  5
14E
330
1F
100
AcDbEntity
  8
URIMAT
  6
EXLTYPE2
 62
     7
100
AcDbLine
 10
587.4999999999791
 20
1439.500000000012
 30
0.0
 11
586.8499999999785
 21
1439.500000000012
 31
0.0
  0
LINE
  5
14F
330
1F
100
AcDbEntity
  8
URIMAT
  6
EXLTYPE2
 62
     7
100
AcDbLine
 10
593.1499999999787
 20
1439.500000000012
 30
0.0
 11
592.4999999999791
 21
1439.500000000012
 31
0.0
  0
ARC
  5
150
330
1F
100
AcDbEntity
  8
URIMAT
  6
EXLTYPE2
 62
     7
100
AcDbCircle
 10
592.4999999999791
 20
1441.500000000012
 30
0.0
 40
2.0
100
AcDbArc
 50
180.0
 51
270.0
  0
ARC
  5
151
330
1F
100
AcDbEntity
  8
URIMAT
  6
EXLTYPE2
 62
     7
100
AcDbCircle
 10
592.4999999999791
 20
1436.500000000012
 30
0.0
 40
2.0
100
AcDbArc
 50
90.00000000000001
 51
180.0
  0
ARC
  5
152
330
1F
100
AcDbEntity
  8
URIMAT
  6
EXLTYPE2
 62
     7
100
AcDbCircle
 10
587.4999999999791
 20
1436.500000000012
 30
0.0
 40
2.0
100
AcDbArc
 50
0.0
 51
90.00000000000001
  0
ARC
  5
153
330
1F
100
AcDbEntity
  8
URIMAT
  6
EXLTYPE2
 62
     7
100
AcDbCircle
 10
587.4999999999791
 20
1441.500000000012
 30
0.0
 40
2.0
100
AcDbArc
 50
270.0
 51
0.0
  0
LINE
  5
154
330
1F
100
AcDbEntity
  8
URIMAT
  6
EXLTYPE2
 62
     7
100
AcDbLine
 10
593.1499999999787
 20
1439.500000000012
 30
0.0
 11
593.1499999999787
 21
1438.500000000012
 31
0.0
  0
LINE
  5
155
330
1F
100
AcDbEntity
  8
URIMAT
  6
EXLTYPE2
 62
     7
100
AcDbLine
 10
586.8499999999785
 20
1439.500000000012
 30
0.0
 11
586.8499999999785
 21
1438.500000000012
 31
0.0
  0
LINE
  5
156
330
1F
100
AcDbEntity
  8
URIMAT
  6
EXLTYPE2
 62
     7
100
AcDbLine
 10
590.499999999979
 20
1435.850000000012
 30
0.0
 11
589.499999999979
 21
1435.850000000012
 31
0.0
  0
LINE
  5
157
330
1F
100
AcDbEntity
  8
URIMAT
  6
EXLTYPE2
 62
     7
100
AcDbLine
 10
590.4999999999786
 20
1442.150000000011
 30
0.0
 11
589.4999999999786
 21
1442.150000000011
 31
0.0
  0
CIRCLE
  5
158
330
1F
100
AcDbEntity
  8
URIMAT
  6
EXLTYPE2
 62
     7
100
AcDbCircle
 10
589.999999999979
 20
1439.000000000012
 30
0.0
 40
5.25
  0
LINE
  5
159
330
1F
100
AcDbEntity
  8
URIMAT
  6
EXLTYPE2
 62
     7
100
AcDbLine
 10
574.4999999999786
 20
1459.500000000011
 30
0.0
 11
574.4999999999786
 21
1458.850000000012
 31
0.0
  0
LINE
  5
15A
330
1F
100
AcDbEntity
  8
URIMAT
  6
EXLTYPE2
 62
     7
100
AcDbLine
 10
574.4999999999783
 20
1465.150000000011
 30
0.0
 11
574.4999999999786
 21
1464.500000000012
 31
0.0
  0
LINE
  5
15B
330
1F
100
AcDbEntity
  8
URIMAT
  6
EXLTYPE2
 62
     7
100
AcDbLine
 10
573.4999999999786
 20
1459.500000000011
 30
0.0
 11
573.4999999999786
 21
1458.850000000012
 31
0.0
  0
LINE
  5
15C
330
1F
100
AcDbEntity
  8
URIMAT
  6
EXLTYPE2
 62
     7
100
AcDbLine
 10
573.4999999999782
 20
1465.150000000011
 30
0.0
 11
573.4999999999786
 21
1464.500000000012
 31
0.0
  0
LINE
  5
15D
330
1F
100
AcDbEntity
  8
URIMAT
  6
EXLTYPE2
 62
     7
100
AcDbLine
 10
571.4999999999786
 20
1461.500000000012
 30
0.0
 11
570.8499999999785
 21
1461.500000000012
 31
0.0
  0
LINE
  5
15E
330
1F
100
AcDbEntity
  8
URIMAT
  6
EXLTYPE2
 62
     7
100
AcDbLine
 10
577.1499999999782
 20
1461.500000000012
 30
0.0
 11
576.4999999999786
 21
1461.500000000012
 31
0.0
  0
LINE
  5
15F
330
1F
100
AcDbEntity
  8
URIMAT
  6
EXLTYPE2
 62
     7
100
AcDbLine
 10
571.4999999999786
 20
1462.500000000012
 30
0.0
 11
570.8499999999785
 21
1462.500000000012
 31
0.0
  0
LINE
  5
160
330
1F
100
AcDbEntity
  8
URIMAT
  6
EXLTYPE2
 62
     7
100
AcDbLine
 10
577.1499999999782
 20
1462.500000000012
 30
0.0
 11
576.4999999999786
 21
1462.500000000012
 31
0.0
  0
ARC
  5
161
330
1F
100
AcDbEntity
  8
URIMAT
  6
EXLTYPE2
 62
     7
100
AcDbCircle
 10
576.4999999999786
 20
1464.500000000012
 30
0.0
 40
2.0
100
AcDbArc
 50
180.0
 51
270.0
  0
ARC
  5
162
330
1F
100
AcDbEntity
  8
URIMAT
  6
EXLTYPE2
 62
     7
100
AcDbCircle
 10
576.4999999999786
 20
1459.500000000011
 30
0.0
 40
2.0
100
AcDbArc
 50
90.00000000000001
 51
180.0
  0
ARC
  5
163
330
1F
100
AcDbEntity
  8
URIMAT
  6
EXLTYPE2
 62
     7
100
AcDbCircle
 10
571.4999999999786
 20
1459.500000000011
 30
0.0
 40
2.0
100
AcDbArc
 50
0.0
 51
90.00000000000001
  0
ARC
  5
164
330
1F
100
AcDbEntity
  8
URIMAT
  6
EXLTYPE2
 62
     7
100
AcDbCircle
 10
571.4999999999786
 20
1464.500000000012
 30
0.0
 40
2.0
100
AcDbArc
 50
270.0
 51
0.0
  0
LINE
  5
165
330
1F
100
AcDbEntity
  8
URIMAT
  6
EXLTYPE2
 62
     7
100
AcDbLine
 10
577.1499999999782
 20
1462.500000000012
 30
0.0
 11
577.1499999999782
 21
1461.500000000012
 31
0.0
  0
LINE
  5
166
330
1F
100
AcDbEntity
  8
URIMAT
  6
EXLTYPE2
 62
     7
100
AcDbLine
 10
570.8499999999785
 20
1462.500000000012
 30
0.0
 11
570.8499999999785
 21
1461.500000000012
 31
0.0
  0
LINE
  5
167
330
1F
100
AcDbEntity
  8
URIMAT
  6
EXLTYPE2
 62
     7
100
AcDbLine
 10
574.4999999999786
 20
1458.850000000012
 30
0.0
 11
573.4999999999786
 21
1458.850000000012
 31
0.0
  0
LINE
  5
168
330
1F
100
AcDbEntity
  8
URIMAT
  6
EXLTYPE2
 62
     7
100
AcDbLine
 10
574.4999999999783
 20
1465.150000000011
 30
0.0
 11
573.4999999999782
 21
1465.150000000011
 31
0.0
  0
CIRCLE
  5
169
330
1F
100
AcDbEntity
  8
URIMAT
  6
EXLTYPE2
 62
     7
100
AcDbCircle
 10
573.9999999999786
 20
1462.000000000012
 30
0.0
 40
5.25
  0
LINE
  5
16A
330
1F
100
AcDbEntity
  8
URIMAT
  6
EXLTYPE2
 62
     7
100
AcDbLine
 10
606.4999999999786
 20
1459.500000000011
 30
0.0
 11
606.4999999999786
 21
1458.850000000012
 31
0.0
  0
LINE
  5
16B
330
1F
100
AcDbEntity
  8
URIMAT
  6
EXLTYPE2
 62
     7
100
AcDbLine
 10
606.4999999999782
 20
1465.150000000011
 30
0.0
 11
606.4999999999786
 21
1464.500000000012
 31
0.0
  0
LINE
  5
16C
330
1F
100
AcDbEntity
  8
URIMAT
  6
EXLTYPE2
 62
     7
100
AcDbLine
 10
605.4999999999786
 20
1459.500000000011
 30
0.0
 11
605.4999999999786
 21
1458.850000000012
 31
0.0
  0
LINE
  5
16D
330
1F
100
AcDbEntity
  8
URIMAT
  6
EXLTYPE2
 62
     7
100
AcDbLine
 10
605.4999999999783
 20
1465.150000000011
 30
0.0
 11
605.4999999999786
 21
1464.500000000012
 31
0.0
  0
LINE
  5
16E
330
1F
100
AcDbEntity
  8
URIMAT
  6
EXLTYPE2
 62
     7
100
AcDbLine
 10
603.4999999999786
 20
1461.500000000012
 30
0.0
 11
602.8499999999785
 21
1461.500000000012
 31
0.0
  0
LINE
  5
16F
330
1F
100
AcDbEntity
  8
URIMAT
  6
EXLTYPE2
 62
     7
100
AcDbLine
 10
609.1499999999787
 20
1461.500000000012
 30
0.0
 11
608.4999999999786
 21
1461.500000000012
 31
0.0
  0
LINE
  5
170
330
1F
100
AcDbEntity
  8
URIMAT
  6
EXLTYPE2
 62
     7
100
AcDbLine
 10
603.4999999999786
 20
1462.500000000012
 30
0.0
 11
602.8499999999785
 21
1462.500000000012
 31
0.0
  0
LINE
  5
171
330
1F
100
AcDbEntity
  8
URIMAT
  6
EXLTYPE2
 62
     7
100
AcDbLine
 10
609.1499999999787
 20
1462.500000000012
 30
0.0
 11
608.4999999999786
 21
1462.500000000012
 31
0.0
  0
ARC
  5
172
330
1F
100
AcDbEntity
  8
URIMAT
  6
EXLTYPE2
 62
     7
100
AcDbCircle
 10
608.4999999999786
 20
1464.500000000012
 30
0.0
 40
2.0
100
AcDbArc
 50
180.0
 51
270.0
  0
ARC
  5
173
330
1F
100
AcDbEntity
  8
URIMAT
  6
EXLTYPE2
 62
     7
100
AcDbCircle
 10
608.4999999999786
 20
1459.500000000011
 30
0.0
 40
2.0
100
AcDbArc
 50
90.00000000000001
 51
180.0
  0
ARC
  5
174
330
1F
100
AcDbEntity
  8
URIMAT
  6
EXLTYPE2
 62
     7
100
AcDbCircle
 10
603.4999999999786
 20
1459.500000000011
 30
0.0
 40
2.0
100
AcDbArc
 50
0.0
 51
90.00000000000001
  0
ARC
  5
175
330
1F
100
AcDbEntity
  8
URIMAT
  6
EXLTYPE2
 62
     7
100
AcDbCircle
 10
603.4999999999786
 20
1464.500000000012
 30
0.0
 40
2.0
100
AcDbArc
 50
270.0
 51
0.0
  0
LINE
  5
176
330
1F
100
AcDbEntity
  8
URIMAT
  6
EXLTYPE2
 62
     7
100
AcDbLine
 10
609.1499999999787
 20
1462.500000000012
 30
0.0
 11
609.1499999999787
 21
1461.500000000012
 31
0.0
  0
LINE
  5
177
330
1F
100
AcDbEntity
  8
URIMAT
  6
EXLTYPE2
 62
     7
100
AcDbLine
 10
602.8499999999785
 20
1462.500000000012
 30
0.0
 11
602.8499999999785
 21
1461.500000000012
 31
0.0
  0
LINE
  5
178
330
1F
100
AcDbEntity
  8
URIMAT
  6
EXLTYPE2
 62
     7
100
AcDbLine
 10
606.4999999999786
 20
1458.850000000012
 30
0.0
 11
605.4999999999786
 21
1458.850000000012
 31
0.0
  0
LINE
  5
179
330
1F
100
AcDbEntity
  8
URIMAT
  6
EXLTYPE2
 62
     7
100
AcDbLine
 10
606.4999999999782
 20
1465.150000000011
 30
0.0
 11
605.4999999999783
 21
1465.150000000011
 31
0.0
  0
CIRCLE
  5
17A
330
1F
100
AcDbEntity
  8
URIMAT
  6
EXLTYPE2
 62
     7
100
AcDbCircle
 10
605.9999999999786
 20
1462.000000000012
 30
0.0
 40
5.25
  0
ARC
  5
17B
330
1F
100
AcDbEntity
  8
URIMAT
  6
EXLTYPE2
 62
     7
100
AcDbCircle
 10
615.999999999979
 20
1425.000000000012
 30
0.0
 40
3.000000000000001
100
AcDbArc
 50
270.0
 51
0.0
  0
ARC
  5
17C
330
1F
100
AcDbEntity
  8
URIMAT
  6
EXLTYPE2
 62
     7
100
AcDbCircle
 10
563.999999999979
 20
1425.00000000001
 30
0.0
 40
3.000000000000001
100
AcDbArc
 50
180.0
 51
270.0
  0
LINE
  5
17D
330
1F
100
AcDbEntity
  8
URIMAT
  6
EXLTYPE2
 62
     7
100
AcDbLine
 10
615.999999999979
 20
1422.000000000012
 30
0.0
 11
563.999999999979
 21
1422.00000000001
 31
0.0
  0
LINE
  5
17E
330
1F
100
AcDbEntity
  8
URIMAT
  6
EXLTYPE2
 62
     7
100
AcDbLine
 10
560.9999999999781
 20
1497.00000000001
 30
0.0
 11
560.999999999979
 21
1425.00000000001
 31
0.0
  0
LINE
  5
17F
330
1F
100
AcDbEntity
  8
URIMAT
  6
EXLTYPE2
 62
     7
100
AcDbLine
 10
618.9999999999782
 20
1497.000000000012
 30
0.0
 11
618.9999999999786
 21
1425.000000000012
 31
0.0
  0
ARC
  5
180
330
1F
100
AcDbEntity
  8
URIMAT
  6
EXLTYPE2
 62
     7
100
AcDbCircle
 10
615.9999999999783
 20
1497.000000000012
 30
0.0
 40
3.000000000000001
100
AcDbArc
 50
0.0000000000043545
 51
90.00000000000222
  0
ARC
  5
181
330
1F
100
AcDbEntity
  8
URIMAT
  6
EXLTYPE2
 62
     7
100
AcDbCircle
 10
563.9999999999782
 20
1497.00000000001
 30
0.0
 40
3.000000000000001
100
AcDbArc
 50
90.00000000000222
 51
180.0
  0
LINE
  5
184
330
1F
100
AcDbEntity
  8
URIMAT
  6
EXLTYPE2
 62
     7
100
AcDbLine
 10
615.9999999999783
 20
1500.000000000012
 30
0.0
 11
563.9999999999782
 21
1500.00000000001
 31
0.0
  0
CIRCLE
  5
188
330
1F
100
AcDbEntity
  8
URIMAT
  6
EXLTYPE2
 62
     7
100
AcDbCircle
 10
369.9999999999791
 20
1439.000000000012
 30
0.0
 40
8.0
  0
LINE
  5
189
330
1F
100
AcDbEntity
  8
URIMAT
  6
EXLTYPE2
 62
     7
100
AcDbLine
 10
370.4999999999791
 20
1436.500000000012
 30
0.0
 11
370.4999999999791
 21
1435.850000000012
 31
0.0
  0
LINE
  5
18A
330
1F
100
AcDbEntity
  8
URIMAT
  6
EXLTYPE2
 62
     7
100
AcDbLine
 10
370.4999999999786
 20
1442.150000000011
 30
0.0
 11
370.4999999999791
 21
1441.500000000012
 31
0.0
  0
LINE
  5
18B
330
1F
100
AcDbEntity
  8
URIMAT
  6
EXLTYPE2
 62
     7
100
AcDbLine
 10
369.4999999999791
 20
1436.500000000012
 30
0.0
 11
369.4999999999791
 21
1435.850000000012
 31
0.0
  0
LINE
  5
18C
330
1F
100
AcDbEntity
  8
URIMAT
  6
EXLTYPE2
 62
     7
100
AcDbLine
 10
369.4999999999786
 20
1442.150000000011
 30
0.0
 11
369.4999999999791
 21
1441.500000000012
 31
0.0
  0
LINE
  5
18D
330
1F
100
AcDbEntity
  8
URIMAT
  6
EXLTYPE2
 62
     7
100
AcDbLine
 10
367.4999999999791
 20
1438.500000000012
 30
0.0
 11
366.8499999999785
 21
1438.500000000012
 31
0.0
  0
LINE
  5
18E
330
1F
100
AcDbEntity
  8
URIMAT
  6
EXLTYPE2
 62
     7
100
AcDbLine
 10
373.1499999999787
 20
1438.500000000012
 30
0.0
 11
372.4999999999791
 21
1438.500000000012
 31
0.0
  0
LINE
  5
18F
330
1F
100
AcDbEntity
  8
URIMAT
  6
EXLTYPE2
 62
     7
100
AcDbLine
 10
367.4999999999791
 20
1439.500000000012
 30
0.0
 11
366.8499999999785
 21
1439.500000000012
 31
0.0
  0
LINE
  5
190
330
1F
100
AcDbEntity
  8
URIMAT
  6
EXLTYPE2
 62
     7
100
AcDbLine
 10
373.1499999999787
 20
1439.500000000012
 30
0.0
 11
372.4999999999791
 21
1439.500000000012
 31
0.0
  0
ARC
  5
191
330
1F
100
AcDbEntity
  8
URIMAT
  6
EXLTYPE2
 62
     7
100
AcDbCircle
 10
372.4999999999791
 20
1441.500000000012
 30
0.0
 40
2.0
100
AcDbArc
 50
180.0
 51
270.0
  0
ARC
  5
192
330
1F
100
AcDbEntity
  8
URIMAT
  6
EXLTYPE2
 62
     7
100
AcDbCircle
 10
372.4999999999791
 20
1436.500000000012
 30
0.0
 40
2.0
100
AcDbArc
 50
90.00000000000001
 51
180.0
  0
ARC
  5
193
330
1F
100
AcDbEntity
  8
URIMAT
  6
EXLTYPE2
 62
     7
100
AcDbCircle
 10
367.4999999999791
 20
1436.500000000012
 30
0.0
 40
2.0
100
AcDbArc
 50
0.0
 51
90.00000000000001
  0
ARC
  5
194
330
1F
100
AcDbEntity
  8
URIMAT
  6
EXLTYPE2
 62
     7
100
AcDbCircle
 10
367.4999999999791
 20
1441.500000000012
 30
0.0
 40
2.0
100
AcDbArc
 50
270.0
 51
0.0
  0
LINE
  5
195
330
1F
100
AcDbEntity
  8
URIMAT
  6
EXLTYPE2
 62
     7
100
AcDbLine
 10
373.1499999999787
 20
1439.500000000012
 30
0.0
 11
373.1499999999787
 21
1438.500000000012
 31
0.0
  0
LINE
  5
196
330
1F
100
AcDbEntity
  8
URIMAT
  6
EXLTYPE2
 62
     7
100
AcDbLine
 10
366.8499999999785
 20
1439.500000000012
 30
0.0
 11
366.8499999999785
 21
1438.500000000012
 31
0.0
  0
LINE
  5
197
330
1F
100
AcDbEntity
  8
URIMAT
  6
EXLTYPE2
 62
     7
100
AcDbLine
 10
370.4999999999791
 20
1435.850000000012
 30
0.0
 11
369.4999999999791
 21
1435.850000000012
 31
0.0
  0
LINE
  5
198
330
1F
100
AcDbEntity
  8
URIMAT
  6
EXLTYPE2
 62
     7
100
AcDbLine
 10
370.4999999999786
 20
1442.150000000011
 30
0.0
 11
369.4999999999786
 21
1442.150000000011
 31
0.0
  0
CIRCLE
  5
199
330
1F
100
AcDbEntity
  8
URIMAT
  6
EXLTYPE2
 62
     7
100
AcDbCircle
 10
369.9999999999791
 20
1439.000000000012
 30
0.0
 40
5.25
  0
LINE
  5
19A
330
1F
100
AcDbEntity
  8
URIMAT
  6
EXLTYPE2
 62
     7
100
AcDbLine
 10
354.4999999999786
 20
1459.500000000011
 30
0.0
 11
354.4999999999786
 21
1458.850000000012
 31
0.0
  0
LINE
  5
19B
330
1F
100
AcDbEntity
  8
URIMAT
  6
EXLTYPE2
 62
     7
100
AcDbLine
 10
354.4999999999782
 20
1465.150000000011
 30
0.0
 11
354.4999999999786
 21
1464.500000000012
 31
0.0
  0
LINE
  5
19C
330
1F
100
AcDbEntity
  8
URIMAT
  6
EXLTYPE2
 62
     7
100
AcDbLine
 10
353.4999999999786
 20
1459.500000000011
 30
0.0
 11
353.4999999999786
 21
1458.850000000012
 31
0.0
  0
LINE
  5
19D
330
1F
100
AcDbEntity
  8
URIMAT
  6
EXLTYPE2
 62
     7
100
AcDbLine
 10
353.4999999999782
 20
1465.150000000011
 30
0.0
 11
353.4999999999786
 21
1464.500000000012
 31
0.0
  0
LINE
  5
19E
330
1F
100
AcDbEntity
  8
URIMAT
  6
EXLTYPE2
 62
     7
100
AcDbLine
 10
351.4999999999786
 20
1461.500000000012
 30
0.0
 11
350.8499999999785
 21
1461.500000000012
 31
0.0
  0
LINE
  5
19F
330
1F
100
AcDbEntity
  8
URIMAT
  6
EXLTYPE2
 62
     7
100
AcDbLine
 10
357.1499999999783
 20
1461.500000000012
 30
0.0
 11
356.4999999999786
 21
1461.500000000012
 31
0.0
  0
LINE
  5
1A0
330
1F
100
AcDbEntity
  8
URIMAT
  6
EXLTYPE2
 62
     7
100
AcDbLine
 10
351.4999999999786
 20
1462.500000000012
 30
0.0
 11
350.8499999999785
 21
1462.500000000012
 31
0.0
  0
LINE
  5
1A1
330
1F
100
AcDbEntity
  8
URIMAT
  6
EXLTYPE2
 62
     7
100
AcDbLine
 10
357.1499999999783
 20
1462.500000000012
 30
0.0
 11
356.4999999999786
 21
1462.500000000012
 31
0.0
  0
ARC
  5
1A2
330
1F
100
AcDbEntity
  8
URIMAT
  6
EXLTYPE2
 62
     7
100
AcDbCircle
 10
356.4999999999786
 20
1464.500000000012
 30
0.0
 40
2.0
100
AcDbArc
 50
180.0
 51
270.0
  0
ARC
  5
1A3
330
1F
100
AcDbEntity
  8
URIMAT
  6
EXLTYPE2
 62
     7
100
AcDbCircle
 10
356.4999999999786
 20
1459.500000000011
 30
0.0
 40
2.0
100
AcDbArc
 50
90.00000000000001
 51
180.0
  0
ARC
  5
1A4
330
1F
100
AcDbEntity
  8
URIMAT
  6
EXLTYPE2
 62
     7
100
AcDbCircle
 10
351.4999999999786
 20
1459.500000000011
 30
0.0
 40
2.0
100
AcDbArc
 50
0.0
 51
90.00000000000001
  0
ARC
  5
1A5
330
1F
100
AcDbEntity
  8
URIMAT
  6
EXLTYPE2
 62
     7
100
AcDbCircle
 10
351.4999999999786
 20
1464.500000000012
 30
0.0
 40
2.0
100
AcDbArc
 50
270.0
 51
0.0
  0
LINE
  5
1A6
330
1F
100
AcDbEntity
  8
URIMAT
  6
EXLTYPE2
 62
     7
100
AcDbLine
 10
357.1499999999783
 20
1462.500000000012
 30
0.0
 11
357.1499999999783
 21
1461.500000000012
 31
0.0
  0
LINE
  5
1A7
330
1F
100
AcDbEntity
  8
URIMAT
  6
EXLTYPE2
 62
     7
100
AcDbLine
 10
350.8499999999785
 20
1462.500000000012
 30
0.0
 11
350.8499999999785
 21
1461.500000000012
 31
0.0
  0
LINE
  5
1A8
330
1F
100
AcDbEntity
  8
URIMAT
  6
EXLTYPE2
 62
     7
100
AcDbLine
 10
354.4999999999786
 20
1458.850000000012
 30
0.0
 11
353.4999999999786
 21
1458.850000000012
 31
0.0
  0
LINE
  5
1A9
330
1F
100
AcDbEntity
  8
URIMAT
  6
EXLTYPE2
 62
     7
100
AcDbLine
 10
354.4999999999782
 20
1465.150000000011
 30
0.0
 11
353.4999999999782
 21
1465.150000000011
 31
0.0
  0
CIRCLE
  5
1AA
330
1F
100
AcDbEntity
  8
URIMAT
  6
EXLTYPE2
 62
     7
100
AcDbCircle
 10
353.9999999999786
 20
1462.000000000012
 30
0.0
 40
5.25
  0
LINE
  5
1AB
330
1F
100
AcDbEntity
  8
URIMAT
  6
EXLTYPE2
 62
     7
100
AcDbLine
 10
386.4999999999786
 20
1459.500000000011
 30
0.0
 11
386.4999999999786
 21
1458.850000000012
 31
0.0
  0
LINE
  5
1AC
330
1F
100
AcDbEntity
  8
URIMAT
  6
EXLTYPE2
 62
     7
100
AcDbLine
 10
386.4999999999782
 20
1465.150000000011
 30
0.0
 11
386.4999999999786
 21
1464.500000000012
 31
0.0
  0
LINE
  5
1AD
330
1F
100
AcDbEntity
  8
URIMAT
  6
EXLTYPE2
 62
     7
100
AcDbLine
 10
385.4999999999786
 20
1459.500000000011
 30
0.0
 11
385.4999999999786
 21
1458.850000000012
 31
0.0
  0
LINE
  5
1AE
330
1F
100
AcDbEntity
  8
URIMAT
  6
EXLTYPE2
 62
     7
100
AcDbLine
 10
385.4999999999782
 20
1465.150000000011
 30
0.0
 11
385.4999999999786
 21
1464.500000000012
 31
0.0
  0
LINE
  5
1AF
330
1F
100
AcDbEntity
  8
URIMAT
  6
EXLTYPE2
 62
     7
100
AcDbLine
 10
383.4999999999786
 20
1461.500000000012
 30
0.0
 11
382.8499999999785
 21
1461.500000000012
 31
0.0
  0
LINE
  5
1B0
330
1F
100
AcDbEntity
  8
URIMAT
  6
EXLTYPE2
 62
     7
100
AcDbLine
 10
389.1499999999787
 20
1461.500000000012
 30
0.0
 11
388.4999999999786
 21
1461.500000000012
 31
0.0
  0
LINE
  5
1B1
330
1F
100
AcDbEntity
  8
URIMAT
  6
EXLTYPE2
 62
     7
100
AcDbLine
 10
383.4999999999786
 20
1462.500000000012
 30
0.0
 11
382.8499999999785
 21
1462.500000000012
 31
0.0
  0
LINE
  5
1B2
330
1F
100
AcDbEntity
  8
URIMAT
  6
EXLTYPE2
 62
     7
100
AcDbLine
 10
389.1499999999787
 20
1462.500000000012
 30
0.0
 11
388.4999999999786
 21
1462.500000000012
 31
0.0
  0
ARC
  5
1B3
330
1F
100
AcDbEntity
  8
URIMAT
  6
EXLTYPE2
 62
     7
100
AcDbCircle
 10
388.4999999999786
 20
1464.500000000012
 30
0.0
 40
2.0
100
AcDbArc
 50
180.0
 51
270.0
  0
ARC
  5
1B4
330
1F
100
AcDbEntity
  8
URIMAT
  6
EXLTYPE2
 62
     7
100
AcDbCircle
 10
388.4999999999786
 20
1459.500000000011
 30
0.0
 40
2.0
100
AcDbArc
 50
90.00000000000001
 51
180.0
  0
ARC
  5
1B5
330
1F
100
AcDbEntity
  8
URIMAT
  6
EXLTYPE2
 62
     7
100
AcDbCircle
 10
383.4999999999786
 20
1459.500000000011
 30
0.0
 40
2.0
100
AcDbArc
 50
0.0
 51
90.00000000000001
  0
ARC
  5
1B6
330
1F
100
AcDbEntity
  8
URIMAT
  6
EXLTYPE2
 62
     7
100
AcDbCircle
 10
383.4999999999786
 20
1464.500000000012
 30
0.0
 40
2.0
100
AcDbArc
 50
270.0
 51
0.0
  0
LINE
  5
1B7
330
1F
100
AcDbEntity
  8
URIMAT
  6
EXLTYPE2
 62
     7
100
AcDbLine
 10
389.1499999999787
 20
1462.500000000012
 30
0.0
 11
389.1499999999787
 21
1461.500000000012
 31
0.0
  0
LINE
  5
1B8
330
1F
100
AcDbEntity
  8
URIMAT
  6
EXLTYPE2
 62
     7
100
AcDbLine
 10
382.8499999999785
 20
1462.500000000012
 30
0.0
 11
382.8499999999785
 21
1461.500000000012
 31
0.0
  0
LINE
  5
1B9
330
1F
100
AcDbEntity
  8
URIMAT
  6
EXLTYPE2
 62
     7
100
AcDbLine
 10
386.4999999999786
 20
1458.850000000012
 30
0.0
 11
385.4999999999786
 21
1458.850000000012
 31
0.0
  0
LINE
  5
1BA
330
1F
100
AcDbEntity
  8
URIMAT
  6
EXLTYPE2
 62
     7
100
AcDbLine
 10
386.4999999999782
 20
1465.150000000011
 30
0.0
 11
385.4999999999782
 21
1465.150000000011
 31
0.0
  0
CIRCLE
  5
1BB
330
1F
100
AcDbEntity
  8
URIMAT
  6
EXLTYPE2
 62
     7
100
AcDbCircle
 10
385.9999999999786
 20
1462.000000000012
 30
0.0
 40
5.25
  0
ARC
  5
1BC
330
1F
100
AcDbEntity
  8
URIMAT
  6
EXLTYPE2
 62
     7
100
AcDbCircle
 10
395.9999999999791
 20
1425.000000000012
 30
0.0
 40
3.000000000000001
100
AcDbArc
 50
270.0
 51
0.0
  0
ARC
  5
1BD
330
1F
100
AcDbEntity
  8
URIMAT
  6
EXLTYPE2
 62
     7
100
AcDbCircle
 10
343.9999999999791
 20
1425.00000000001
 30
0.0
 40
3.000000000000001
100
AcDbArc
 50
180.0
 51
270.0
  0
LINE
  5
1BE
330
1F
100
AcDbEntity
  8
URIMAT
  6
EXLTYPE2
 62
     7
100
AcDbLine
 10
395.9999999999791
 20
1422.000000000012
 30
0.0
 11
343.9999999999791
 21
1422.00000000001
 31
0.0
  0
LINE
  5
1BF
330
1F
100
AcDbEntity
  8
URIMAT
  6
EXLTYPE2
 62
     7
100
AcDbLine
 10
340.9999999999782
 20
1497.00000000001
 30
0.0
 11
340.9999999999791
 21
1425.00000000001
 31
0.0
  0
LINE
  5
1C0
330
1F
100
AcDbEntity
  8
URIMAT
  6
EXLTYPE2
 62
     7
100
AcDbLine
 10
398.9999999999782
 20
1497.000000000012
 30
0.0
 11
398.9999999999786
 21
1425.000000000012
 31
0.0
  0
ARC
  5
1C1
330
1F
100
AcDbEntity
  8
URIMAT
  6
EXLTYPE2
 62
     7
100
AcDbCircle
 10
395.9999999999782
 20
1497.000000000012
 30
0.0
 40
3.000000000000001
100
AcDbArc
 50
0.0000000000043545
 51
90.00000000000222
  0
ARC
  5
1C2
330
1F
100
AcDbEntity
  8
URIMAT
  6
EXLTYPE2
 62
     7
100
AcDbCircle
 10
343.9999999999782
 20
1497.00000000001
 30
0.0
 40
3.000000000000001
100
AcDbArc
 50
90.00000000000222
 51
180.0
  0
LINE
  5
1C5
330
1F
100
AcDbEntity
  8
URIMAT
  6
EXLTYPE2
 62
     7
100
AcDbLine
 10
395.9999999999782
 20
1500.000000000012
 30
0.0
 11
343.9999999999782
 21
1500.00000000001
 31
0.0
  0
ARC
  5
1C8
330
1F
100
AcDbEntity
  8
URIMAT
  6
Continuous
 62
     7
100
AcDbCircle
 10
448.1601416010607
 20
993.2120510725425
 30
0.0
 40
150.0
100
AcDbArc
 50
322.7494753565782
 51
357.3487847782105
  0
ARC
  5
1CA
330
1F
100
AcDbEntity
  8
URIMAT
  6
Continuous
 62
     7
100
AcDbCircle
 10
479.99999999999
 20
969.0
 30
0.0
 40
110.0000000000001
100
AcDbArc
 50
217.250524643422
 51
322.7494751241528
  0
ARC
  5
1CB
330
1F
100
AcDbEntity
  8
URIMAT
  6
Continuous
 62
     7
100
AcDbCircle
 10
511.8398583989209
 20
993.2120510725425
 30
0.0
 40
150.0
100
AcDbArc
 50
182.6512152217895
 51
217.250524643422
  0
ARC
  5
1CC
330
1F
100
AcDbEntity
  8
URIMAT
  6
Continuous
 62
     7
100
AcDbCircle
 10
479.99999999999
 20
989.0
 30
0.0
 40
130.0
100
AcDbArc
 50
182.6256540079605
 51
357.3743460079396
  0
LINE
  5
1CD
330
1F
100
AcDbEntity
  8
URIMAT
  6
Continuous
 62
     7
100
AcDbLine
 10
319.9999999999905
 20
639.0
 30
0.0
 11
640.2795134145686
 21
638.9999999999908
 31
0.0
  0
ARC
  5
1CE
330
1F
100
AcDbEntity
  8
URIMAT
  6
Continuous
 62
     7
100
AcDbCircle
 10
479.9999999999908
 20
-941.0000000000009
 30
0.0
 40
2500.0
100
AcDbArc
 50
86.2322453766886
 51
93.76775173681195
  0
ARC
  5
1D0
330
1F
100
AcDbEntity
  8
URIMAT
  6
Continuous
 62
     7
100
AcDbCircle
 10
541.6369223723409
 20
1461.209376761414
 30
0.0
 40
85.0
100
AcDbArc
 50
353.8514742561342
 51
88.53020271553422
  0
ARC
  5
1D1
330
1F
100
AcDbEntity
  8
URIMAT
  6
Continuous
 62
     7
100
AcDbCircle
 10
479.9999999999908
 20
-941.0000000000009
 30
0.0
 40
2488.0
100
AcDbArc
 50
88.53020271553427
 51
91.46978990788076
  0
ARC
  5
1D2
330
1F
100
AcDbEntity
  8
URIMAT
  6
Continuous
 62
     7
100
AcDbCircle
 10
643.8865740886176
 20
1547.609489420446
 30
0.0
 40
6.000000000000003
100
AcDbArc
 50
358.8560185780257
 51
86.23224537668958
  0
ARC
  5
1D3
330
1F
100
AcDbEntity
  8
URIMAT
  6
Continuous
 62
     7
100
AcDbCircle
 10
316.1134259113637
 20
1547.609489420446
 30
0.0
 40
6.000000000000003
100
AcDbArc
 50
93.76775462331146
 51
181.1439814219735
  0
ARC
  5
1D5
330
1F
100
AcDbEntity
  8
URIMAT
  6
Continuous
 62
     7
100
AcDbCircle
 10
418.3630776276404
 20
1461.209376761414
 30
0.0
 40
85.0
100
AcDbArc
 50
91.46979728446572
 51
186.1485257438661
  0
LINE
  5
1D6
330
1F
100
AcDbEntity
  8
URIMAT
  6
Continuous
 62
     7
100
AcDbLine
 10
310.4516237925109
 20
1549.59543926041
 30
0.0
 11
350.3171532795027
 21
979.9247993702303
 31
0.0
  0
LINE
  5
1D7
330
1F
100
AcDbEntity
  8
URIMAT
  6
Continuous
 62
     7
100
AcDbLine
 10
333.518690722502
 20
1456.068364148011
 30
0.0
 11
362.1144697427944
 21
984.1396758724195
 31
0.0
  0
ARC
  5
1D8
330
1F
100
AcDbEntity
  8
URIMAT
  6
Continuous
 62
     7
100
AcDbCircle
 10
2369.303163320676
 20
907.5885973199719
 30
0.0
 40
2000.0
100
AcDbArc
 50
168.4217704487658
 51
178.9164553273983
  0
ARC
  5
1D9
330
1F
100
AcDbEntity
  8
URIMAT
  6
Continuous
 62
     7
100
AcDbCircle
 10
2391.258784926974
 20
971.1556529284779
 30
0.0
 40
2000.0
100
AcDbArc
 50
170.2748421304096
 51
181.9696092731553
  0
ARC
  5
1DA
330
1F
100
AcDbEntity
  8
URIMAT
  6
Continuous
 62
     7
100
AcDbCircle
 10
-1431.258784926992
 20
971.155652928479
 30
0.0
 40
2000.0
100
AcDbArc
 50
358.0303907268447
 51
9.725157869590296
  0
ARC
  5
1DB
330
1F
100
AcDbEntity
  8
URIMAT
  6
Continuous
 62
     7
100
AcDbCircle
 10
-1409.303163320694
 20
907.5885973199719
 30
0.0
 40
2000.0
100
AcDbArc
 50
1.083544672601719
 51
11.57822955123418
  0
LINE
  5
1DC
330
1F
100
AcDbEntity
  8
URIMAT
  6
Continuous
 62
     7
100
AcDbLine
 10
626.4813092774802
 20
1456.068364148011
 30
0.0
 11
597.8855302571877
 21
984.1396758724195
 31
0.0
  0
LINE
  5
1DD
330
1F
100
AcDbEntity
  8
URIMAT
  6
Continuous
 62
     7
100
AcDbLine
 10
649.5483762074717
 20
1549.59543926041
 30
0.0
 11
609.6828467204796
 21
979.9247993702303
 31
0.0
  0
LINE
  5
1DE
330
1F
100
AcDbEntity
  8
URIMAT
  6
Continuous
 62
     7
100
AcDbLine
 10
310.1137810934142
 20
1547.544204977809
 30
0.0
 11
319.9999999999909
 21
639.00000000001
 31
0.0
  0
LINE
  5
1DF
330
1F
100
AcDbEntity
  8
URIMAT
  6
Continuous
 62
     7
100
AcDbLine
 10
640.2795134145907
 20
639.00000000001
 30
0.0
 11
649.8862387051167
 21
1547.546050555932
 31
0.0
  0
LINE
  5
1E1
330
1F
100
AcDbEntity
  8
URIMAT
  6
EXLTYPE2
 62
     7
100
AcDbLine
 10
1241.610394299989
 20
1354.00000000001
 30
0.0
 11
1241.610394299989
 21
1508.999999999988
 31
0.0
  0
LINE
  5
1E2
330
1F
100
AcDbEntity
  8
URIMAT
  6
EXLTYPE2
 62
     7
100
AcDbLine
 10
1252.063388916214
 20
1508.999999999988
 30
0.0
 11
1241.61039429999
 21
1508.999999999988
 31
0.0
  0
LINE
  5
1E3
330
1F
100
AcDbEntity
  8
URIMAT
  6
EXLTYPE2
 62
     7
100
AcDbLine
 10
1252.063388916222
 20
1508.999999999988
 30
0.0
 11
1263.610394299997
 21
1488.999999999999
 31
0.0
  0
LINE
  5
1E4
330
1F
100
AcDbEntity
  8
URIMAT
  6
EXLTYPE2
 62
     7
100
AcDbLine
 10
1265.610394299991
 20
1509.00000000001
 30
0.0
 11
1271.610394299991
 21
1499.00000000001
 31
0.0
  0
LINE
  5
1E5
330
1F
100
AcDbEntity
  8
URIMAT
  6
EXLTYPE2
 62
     7
100
AcDbLine
 10
1265.61039429999
 20
1548.00000000001
 30
0.0
 11
1265.61039429999
 21
1509.00000000001
 31
0.0
  0
ARC
  5
1E6
330
1F
100
AcDbEntity
  8
URIMAT
  6
Continuous
 62
     7
100
AcDbCircle
 10
1294.215096258272
 20
1285.516354752205
 30
0.0
 40
301.3653132398778
100
AcDbArc
 50
244.5243104885797
 51
265.6983385218896
  0
ARC
  5
1E7
330
1F
100
AcDbEntity
  8
URIMAT
  6
Continuous
 62
     7
100
AcDbCircle
 10
1264.887259510337
 20
1187.456032669121
 30
0.0
 40
200.8396460095743
100
AcDbArc
 50
217.4820377053393
 51
240.040171305709
  0
LINE
  5
1E8
330
1F
100
AcDbEntity
  8
URIMAT
  6
Continuous
 62
     7
100
AcDbLine
 10
1262.110394299991
 20
1439.00000000001
 30
0.0
 11
1320.610394299991
 21
1439.00000000001
 31
0.0
  0
LINE
  5
1E9
330
1F
100
AcDbEntity
  8
URIMAT
  6
Continuous
 62
     7
100
AcDbLine
 10
1263.710394299991
 20
1462.00000000001
 30
0.0
 11
1321.410394299991
 21
1462.00000000001
 31
0.0
  0
LINE
  5
1EA
330
1F
100
AcDbEntity
  8
URIMAT
  6
Continuous
 62
     7
100
AcDbLine
 10
1308.980394299991
 20
1465.00000000001
 30
0.0
 11
1310.250394299991
 21
1459.00000000001
 31
0.0
  0
LINE
  5
1EB
330
1F
100
AcDbEntity
  8
URIMAT
  6
Continuous
 62
     7
100
AcDbLine
 10
1306.440394299991
 20
1465.00000000001
 30
0.0
 11
1307.710394299991
 21
1459.00000000001
 31
0.0
  0
LINE
  5
1EC
330
1F
100
AcDbEntity
  8
URIMAT
  6
Continuous
 62
     7
100
AcDbLine
 10
1303.900394299991
 20
1465.00000000001
 30
0.0
 11
1305.170394299991
 21
1459.00000000001
 31
0.0
  0
LINE
  5
1ED
330
1F
100
AcDbEntity
  8
URIMAT
  6
Continuous
 62
     7
100
AcDbLine
 10
1301.360394299991
 20
1465.00000000001
 30
0.0
 11
1302.630394299991
 21
1459.00000000001
 31
0.0
  0
LINE
  5
1EE
330
1F
100
AcDbEntity
  8
URIMAT
  6
Continuous
 62
     7
100
AcDbLine
 10
1316.605626808891
 20
1464.219373973709
 30
0.0
 11
1317.478625801191
 21
1460.094969285509
 31
0.0
  0
LINE
  5
1EF
330
1F
100
AcDbEntity
  8
URIMAT
  6
Continuous
 62
     7
100
AcDbLine
 10
1313.933833477691
 20
1464.842019632711
 30
0.0
 11
1315.092541434691
 21
1459.36780881251
 31
0.0
  0
LINE
  5
1F0
330
1F
100
AcDbEntity
  8
URIMAT
  6
Continuous
 62
     7
100
AcDbLine
 10
1311.360394299991
 20
1465.00000000001
 30
0.0
 11
1312.630394299991
 21
1459.00000000001
 31
0.0
  0
LINE
  5
1F1
330
1F
100
AcDbEntity
  8
URIMAT
  6
Continuous
 62
     7
100
AcDbLine
 10
1298.820394299991
 20
1465.00000000001
 30
0.0
 11
1300.090394299991
 21
1459.00000000001
 31
0.0
  0
LINE
  5
1F2
330
1F
100
AcDbEntity
  8
URIMAT
  6
Continuous
 62
     7
100
AcDbLine
 10
1296.280394299991
 20
1465.00000000001
 30
0.0
 11
1297.550394299991
 21
1459.00000000001
 31
0.0
  0
LINE
  5
1F3
330
1F
100
AcDbEntity
  8
URIMAT
  6
Continuous
 62
     7
100
AcDbLine
 10
1293.740394299991
 20
1465.00000000001
 30
0.0
 11
1295.010394299991
 21
1459.00000000001
 31
0.0
  0
LINE
  5
1F4
330
1F
100
AcDbEntity
  8
URIMAT
  6
Continuous
 62
     7
100
AcDbLine
 10
1291.200394299991
 20
1465.00000000001
 30
0.0
 11
1292.470394299991
 21
1459.00000000001
 31
0.0
  0
LINE
  5
1F5
330
1F
100
AcDbEntity
  8
URIMAT
  6
Continuous
 62
     7
100
AcDbLine
 10
1288.660394299991
 20
1465.00000000001
 30
0.0
 11
1289.930394299991
 21
1459.00000000001
 31
0.0
  0
LINE
  5
1F6
330
1F
100
AcDbEntity
  8
URIMAT
  6
Continuous
 62
     7
100
AcDbLine
 10
1286.120394299991
 20
1465.00000000001
 30
0.0
 11
1287.390394299991
 21
1459.00000000001
 31
0.0
  0
LINE
  5
1F7
330
1F
100
AcDbEntity
  8
URIMAT
  6
Continuous
 62
     7
100
AcDbLine
 10
1283.580394299991
 20
1465.00000000001
 30
0.0
 11
1284.850394299991
 21
1459.00000000001
 31
0.0
  0
LINE
  5
1F8
330
1F
100
AcDbEntity
  8
URIMAT
  6
Continuous
 62
     7
100
AcDbLine
 10
1281.040394299991
 20
1465.00000000001
 30
0.0
 11
1282.310394299991
 21
1459.00000000001
 31
0.0
  0
LINE
  5
1F9
330
1F
100
AcDbEntity
  8
URIMAT
  6
Continuous
 62
     7
100
AcDbLine
 10
1278.500394299991
 20
1465.00000000001
 30
0.0
 11
1279.770394299991
 21
1459.00000000001
 31
0.0
  0
LINE
  5
1FA
330
1F
100
AcDbEntity
  8
URIMAT
  6
Continuous
 62
     7
100
AcDbLine
 10
1275.960394299991
 20
1465.00000000001
 30
0.0
 11
1277.230394299991
 21
1459.00000000001
 31
0.0
  0
LINE
  5
1FB
330
1F
100
AcDbEntity
  8
URIMAT
  6
Continuous
 62
     7
100
AcDbLine
 10
1273.420394299991
 20
1465.00000000001
 30
0.0
 11
1274.690394299991
 21
1459.00000000001
 31
0.0
  0
LINE
  5
1FC
330
1F
100
AcDbEntity
  8
URIMAT
  6
Continuous
 62
     7
100
AcDbLine
 10
1272.150394299991
 20
1459.00000000001
 30
0.0
 11
1271.610394299991
 21
1461.551181102411
 31
0.0
  0
ARC
  5
1FD
330
1F
100
AcDbEntity
  8
URIMAT
  6
Continuous
 62
     7
100
AcDbCircle
 10
1311.708653985391
 20
1474.75000000001
 30
0.0
 40
15.00000000000001
100
AcDbArc
 50
270.0000000000002
 51
301.7883306171001
  0
ARC
  5
1FE
330
1F
100
AcDbEntity
  8
URIMAT
  6
Continuous
 62
     7
100
AcDbCircle
 10
1311.708653985391
 20
1449.25000000001
 30
0.0
 40
15.00000000000001
100
AcDbArc
 50
58.21166938294997
 51
90.00000000000001
  0
LINE
  5
1FF
330
1F
100
AcDbEntity
  8
URIMAT
  6
Continuous
 62
     7
100
AcDbLine
 10
1271.610394299991
 20
1459.75000000001
 30
0.0
 11
1311.708653985391
 21
1459.75000000001
 31
0.0
  0
LINE
  5
200
330
1F
100
AcDbEntity
  8
URIMAT
  6
Continuous
 62
     7
100
AcDbLine
 10
1271.610394299991
 20
1464.25000000001
 30
0.0
 11
1311.708653985391
 21
1464.25000000001
 31
0.0
  0
LINE
  5
201
330
1F
100
AcDbEntity
  8
URIMAT
  6
Continuous
 62
     7
100
AcDbLine
 10
1308.980394299991
 20
1442.00000000001
 30
0.0
 11
1310.250394299991
 21
1436.00000000001
 31
0.0
  0
LINE
  5
202
330
1F
100
AcDbEntity
  8
URIMAT
  6
Continuous
 62
     7
100
AcDbLine
 10
1306.440394299991
 20
1442.00000000001
 30
0.0
 11
1307.710394299991
 21
1436.00000000001
 31
0.0
  0
LINE
  5
203
330
1F
100
AcDbEntity
  8
URIMAT
  6
Continuous
 62
     7
100
AcDbLine
 10
1303.900394299991
 20
1442.00000000001
 30
0.0
 11
1305.170394299991
 21
1436.00000000001
 31
0.0
  0
LINE
  5
204
330
1F
100
AcDbEntity
  8
URIMAT
  6
Continuous
 62
     7
100
AcDbLine
 10
1301.360394299991
 20
1442.00000000001
 30
0.0
 11
1302.630394299991
 21
1436.00000000001
 31
0.0
  0
LINE
  5
205
330
1F
100
AcDbEntity
  8
URIMAT
  6
Continuous
 62
     7
100
AcDbLine
 10
1316.605626808891
 20
1441.219373973709
 30
0.0
 11
1317.478625801191
 21
1437.094969285509
 31
0.0
  0
LINE
  5
206
330
1F
100
AcDbEntity
  8
URIMAT
  6
Continuous
 62
     7
100
AcDbLine
 10
1313.933833477691
 20
1441.842019632711
 30
0.0
 11
1315.092541434691
 21
1436.36780881251
 31
0.0
  0
LINE
  5
207
330
1F
100
AcDbEntity
  8
URIMAT
  6
Continuous
 62
     7
100
AcDbLine
 10
1311.360394299991
 20
1442.00000000001
 30
0.0
 11
1312.630394299991
 21
1436.00000000001
 31
0.0
  0
LINE
  5
208
330
1F
100
AcDbEntity
  8
URIMAT
  6
Continuous
 62
     7
100
AcDbLine
 10
1298.820394299991
 20
1442.00000000001
 30
0.0
 11
1300.090394299991
 21
1436.00000000001
 31
0.0
  0
LINE
  5
209
330
1F
100
AcDbEntity
  8
URIMAT
  6
Continuous
 62
     7
100
AcDbLine
 10
1296.280394299991
 20
1442.00000000001
 30
0.0
 11
1297.550394299991
 21
1436.00000000001
 31
0.0
  0
LINE
  5
20A
330
1F
100
AcDbEntity
  8
URIMAT
  6
Continuous
 62
     7
100
AcDbLine
 10
1293.740394299991
 20
1442.00000000001
 30
0.0
 11
1295.010394299991
 21
1436.00000000001
 31
0.0
  0
LINE
  5
20B
330
1F
100
AcDbEntity
  8
URIMAT
  6
Continuous
 62
     7
100
AcDbLine
 10
1291.200394299991
 20
1442.00000000001
 30
0.0
 11
1292.470394299991
 21
1436.00000000001
 31
0.0
  0
LINE
  5
20C
330
1F
100
AcDbEntity
  8
URIMAT
  6
Continuous
 62
     7
100
AcDbLine
 10
1288.660394299991
 20
1442.00000000001
 30
0.0
 11
1289.930394299991
 21
1436.00000000001
 31
0.0
  0
LINE
  5
20D
330
1F
100
AcDbEntity
  8
URIMAT
  6
Continuous
 62
     7
100
AcDbLine
 10
1286.120394299991
 20
1442.00000000001
 30
0.0
 11
1287.390394299991
 21
1436.00000000001
 31
0.0
  0
LINE
  5
20E
330
1F
100
AcDbEntity
  8
URIMAT
  6
Continuous
 62
     7
100
AcDbLine
 10
1283.580394299991
 20
1442.00000000001
 30
0.0
 11
1284.850394299991
 21
1436.00000000001
 31
0.0
  0
LINE
  5
20F
330
1F
100
AcDbEntity
  8
URIMAT
  6
Continuous
 62
     7
100
AcDbLine
 10
1281.040394299991
 20
1442.00000000001
 30
0.0
 11
1282.310394299991
 21
1436.00000000001
 31
0.0
  0
LINE
  5
210
330
1F
100
AcDbEntity
  8
URIMAT
  6
Continuous
 62
     7
100
AcDbLine
 10
1278.500394299991
 20
1442.00000000001
 30
0.0
 11
1279.770394299991
 21
1436.00000000001
 31
0.0
  0
LINE
  5
211
330
1F
100
AcDbEntity
  8
URIMAT
  6
Continuous
 62
     7
100
AcDbLine
 10
1275.960394299991
 20
1442.00000000001
 30
0.0
 11
1277.230394299991
 21
1436.00000000001
 31
0.0
  0
LINE
  5
212
330
1F
100
AcDbEntity
  8
URIMAT
  6
Continuous
 62
     7
100
AcDbLine
 10
1273.420394299991
 20
1442.00000000001
 30
0.0
 11
1274.690394299991
 21
1436.00000000001
 31
0.0
  0
LINE
  5
213
330
1F
100
AcDbEntity
  8
URIMAT
  6
Continuous
 62
     7
100
AcDbLine
 10
1272.150394299991
 20
1436.00000000001
 30
0.0
 11
1270.880394299991
 21
1442.00000000001
 31
0.0
  0
ARC
  5
214
330
1F
100
AcDbEntity
  8
URIMAT
  6
Continuous
 62
     7
100
AcDbCircle
 10
1311.708653985391
 20
1451.75000000001
 30
0.0
 40
15.00000000000001
100
AcDbArc
 50
270.0000000000002
 51
301.7883306171001
  0
ARC
  5
215
330
1F
100
AcDbEntity
  8
URIMAT
  6
Continuous
 62
     7
100
AcDbCircle
 10
1311.708653985391
 20
1426.25000000001
 30
0.0
 40
15.00000000000001
100
AcDbArc
 50
58.21166938294997
 51
90.00000000000001
  0
LINE
  5
216
330
1F
100
AcDbEntity
  8
URIMAT
  6
Continuous
 62
     7
100
AcDbLine
 10
1269.610394299991
 20
1436.75000000001
 30
0.0
 11
1311.708653985391
 21
1436.75000000001
 31
0.0
  0
LINE
  5
217
330
1F
100
AcDbEntity
  8
URIMAT
  6
Continuous
 62
     7
100
AcDbLine
 10
1269.610394299991
 20
1441.25000000001
 30
0.0
 11
1311.708653985391
 21
1441.25000000001
 31
0.0
  0
LINE
  5
218
330
1F
100
AcDbEntity
  8
URIMAT
  6
Continuous
 62
     7
100
AcDbLine
 10
1264.110394299991
 20
1439.00000000001
 30
0.0
 11
1265.613022244191
 21
1441.602627944211
 31
0.0
  0
LINE
  5
219
330
1F
100
AcDbEntity
  8
URIMAT
  6
Continuous
 62
     7
100
AcDbLine
 10
1264.110394299991
 20
1439.00000000001
 30
0.0
 11
1265.613022244191
 21
1436.397372055811
 31
0.0
  0
LINE
  5
21A
330
1F
100
AcDbEntity
  8
URIMAT
  6
Continuous
 62
     7
100
AcDbLine
 10
1265.710394299991
 20
1462.00000000001
 30
0.0
 11
1267.213022244191
 21
1464.602627944211
 31
0.0
  0
LINE
  5
21B
330
1F
100
AcDbEntity
  8
URIMAT
  6
Continuous
 62
     7
100
AcDbLine
 10
1265.710394299991
 20
1462.00000000001
 30
0.0
 11
1267.213022244191
 21
1459.397372055811
 31
0.0
  0
LINE
  5
21C
330
1F
100
AcDbEntity
  8
URIMAT
  6
Continuous
 62
     7
100
AcDbLine
 10
1271.610394299991
 20
1436.75000000001
 30
0.0
 11
1271.610394299991
 21
1422.00000000001
 31
0.0
  0
LINE
  5
21D
330
1F
100
AcDbEntity
  8
URIMAT
  6
Continuous
 62
     7
100
AcDbLine
 10
1271.610394299991
 20
1468.39230484541
 30
0.0
 11
1271.610394299991
 21
1441.25000000001
 31
0.0
  0
LINE
  5
21E
330
1F
100
AcDbEntity
  8
URIMAT
  6
Continuous
 62
     7
100
AcDbLine
 10
1268.010394299991
 20
1431.00000000001
 30
0.0
 11
1269.610394299991
 21
1431.00000000001
 31
0.0
  0
LINE
  5
21F
330
1F
100
AcDbEntity
  8
URIMAT
  6
Continuous
 62
     7
100
AcDbLine
 10
1268.010394299991
 20
1447.00000000001
 30
0.0
 11
1269.610394299991
 21
1447.00000000001
 31
0.0
  0
LINE
  5
220
330
1F
100
AcDbEntity
  8
URIMAT
  6
Continuous
 62
     7
100
AcDbLine
 10
1268.010394299991
 20
1431.00000000001
 30
0.0
 11
1268.010394299991
 21
1447.00000000001
 31
0.0
  0
ARC
  5
221
330
1F
100
AcDbEntity
  8
URIMAT
  6
Continuous
 62
     7
100
AcDbCircle
 10
1268.042738516891
 20
1458.794409800709
 30
0.0
 40
1.9
100
AcDbArc
 50
195.3624850368001
 51
265.0000000000002
  0
ARC
  5
222
330
1F
100
AcDbEntity
  8
URIMAT
  6
Continuous
 62
     7
100
AcDbCircle
 10
1268.042738516891
 20
1465.205590199311
 30
0.0
 40
1.9
100
AcDbArc
 50
97.51782391641
 51
164.6375149632001
  0
LINE
  5
223
330
1F
100
AcDbEntity
  8
URIMAT
  6
Continuous
 62
     7
100
AcDbLine
 10
1269.610394299991
 20
1456.75000000001
 30
0.0
 11
1267.877142605591
 21
1456.901639874311
 31
0.0
  0
ARC
  5
224
330
1F
100
AcDbEntity
  8
URIMAT
  6
Continuous
 62
     7
100
AcDbCircle
 10
1279.710394299991
 20
1462.00000000001
 30
0.0
 40
14.00000000000001
100
AcDbArc
 50
164.6375149632001
 51
195.3624850368001
  0
ARC
  5
225
330
1F
100
AcDbEntity
  8
URIMAT
  6
Continuous
 62
     7
100
AcDbCircle
 10
1266.442738516891
 20
1435.794409800709
 30
0.0
 40
1.9
100
AcDbArc
 50
195.3624850368001
 51
265.0000000000002
  0
ARC
  5
226
330
1F
100
AcDbEntity
  8
URIMAT
  6
Continuous
 62
     7
100
AcDbCircle
 10
1266.442738516891
 20
1442.205590199311
 30
0.0
 40
1.9
100
AcDbArc
 50
95.0
 51
164.6375149632001
  0
LINE
  5
227
330
1F
100
AcDbEntity
  8
URIMAT
  6
Continuous
 62
     7
100
AcDbLine
 10
1268.010394299991
 20
1444.25000000001
 30
0.0
 11
1266.277142605591
 21
1444.098360125709
 31
0.0
  0
LINE
  5
228
330
1F
100
AcDbEntity
  8
URIMAT
  6
Continuous
 62
     7
100
AcDbLine
 10
1268.010394299991
 20
1433.75000000001
 30
0.0
 11
1266.277142605591
 21
1433.901639874311
 31
0.0
  0
ARC
  5
229
330
1F
100
AcDbEntity
  8
URIMAT
  6
Continuous
 62
     7
100
AcDbCircle
 10
1278.110394299991
 20
1439.00000000001
 30
0.0
 40
14.00000000000001
100
AcDbArc
 50
164.6375149632001
 51
195.3624850368001
  0
LINE
  5
22A
330
1F
100
AcDbEntity
  8
URIMAT
  6
Continuous
 62
     7
100
AcDbLine
 10
1269.610394299991
 20
1430.00000000001
 30
0.0
 11
1271.610394299991
 21
1430.00000000001
 31
0.0
  0
LINE
  5
22B
330
1F
100
AcDbEntity
  8
URIMAT
  6
Continuous
 62
     7
100
AcDbLine
 10
1269.610394299991
 20
1448.00000000001
 30
0.0
 11
1271.610394299991
 21
1448.00000000001
 31
0.0
  0
LINE
  5
22C
330
1F
100
AcDbEntity
  8
URIMAT
  6
Continuous
 62
     7
100
AcDbLine
 10
1267.453528179391
 20
1477.73580170591
 30
0.0
 11
1271.610394299991
 21
1459.22176459461
 31
0.0
  0
ARC
  5
22D
330
1F
100
AcDbEntity
  8
URIMAT
  6
Continuous
 62
     7
100
AcDbCircle
 10
1263.610394299991
 20
1468.39230484541
 30
0.0
 40
8.0
100
AcDbArc
 50
0.0
 51
29.99999999999995
  0
LINE
  5
22E
330
1F
100
AcDbEntity
  8
URIMAT
  6
Continuous
 62
     7
100
AcDbLine
 10
1265.568942415691
 20
1477.00000000001
 30
0.0
 11
1269.610394299991
 21
1459.00000000001
 31
0.0
  0
LINE
  5
22F
330
1F
100
AcDbEntity
  8
URIMAT
  6
Continuous
 62
     7
100
AcDbLine
 10
1250.954221407591
 20
1494.706252112209
 30
0.0
 11
1265.697379214091
 21
1425.170353727411
 31
0.0
  0
ARC
  5
230
330
1F
100
AcDbEntity
  8
URIMAT
  6
Continuous
 62
     7
100
AcDbCircle
 10
1269.610394299991
 20
1426.00000000001
 30
0.0
 40
4.0
100
AcDbArc
 50
191.9707065051
 51
270.0000000000002
  0
ARC
  5
231
330
1F
100
AcDbEntity
  8
URIMAT
  6
Continuous
 62
     7
100
AcDbCircle
 10
1254.867236493491
 20
1495.53589838491
 30
0.0
 40
4.0
100
AcDbArc
 50
119.9999999999999
 51
191.9707065051
  0
LINE
  5
232
330
1F
100
AcDbEntity
  8
URIMAT
  6
Continuous
 62
     7
100
AcDbLine
 10
1254.599287301091
 20
1500.00000000001
 30
0.0
 11
1252.867236493491
 21
1499.00000000001
 31
0.0
  0
LINE
  5
233
330
1F
100
AcDbEntity
  8
URIMAT
  6
Continuous
 62
     7
100
AcDbLine
 10
1270.538597530291
 20
1472.39230484541
 30
0.0
 11
1254.599287301091
 21
1500.00000000001
 31
0.0
  0
LINE
  5
234
330
1F
100
AcDbEntity
  8
URIMAT
  6
Continuous
 62
     7
100
AcDbLine
 10
1265.568942415691
 20
1477.00000000001
 30
0.0
 11
1252.867236493491
 21
1499.00000000001
 31
0.0
  0
LINE
  5
235
330
1F
100
AcDbEntity
  8
URIMAT
  6
Continuous
 62
     7
100
AcDbLine
 10
1269.610394299991
 20
1422.00000000001
 30
0.0
 11
1271.610394299991
 21
1422.00000000001
 31
0.0
  0
LINE
  5
236
330
1F
100
AcDbEntity
  8
URIMAT
  6
Continuous
 62
     7
100
AcDbLine
 10
1269.610394299991
 20
1459.00000000001
 30
0.0
 11
1269.610394299991
 21
1422.00000000001
 31
0.0
  0
LINE
  5
237
330
1F
100
AcDbEntity
  8
URIMAT
  6
Continuous
 62
     7
100
AcDbLine
 10
1271.61039429999
 20
1488.999999999999
 30
0.0
 11
1263.61039429999
 21
1488.999999999999
 31
0.0
  0
ARC
  5
23A
330
1F
100
AcDbEntity
  8
URIMAT
  6
Continuous
 62
     7
100
AcDbCircle
 10
1044.706084744327
 20
1026.424940645211
 30
0.0
 40
72.14002515543372
100
AcDbArc
 50
32.55351742838112
 51
71.1161928120748
  0
LINE
  5
23B
330
1F
100
AcDbEntity
  8
URIMAT
  6
Continuous
 62
     7
100
AcDbLine
 10
1271.61039429999
 20
1559.00000000001
 30
0.0
 11
1271.610394299988
 21
639.0000000000007
 31
0.0
  0
ARC
  5
23C
330
1F
100
AcDbEntity
  8
URIMAT
  6
Continuous
 62
     7
100
AcDbCircle
 10
897.6103942999905
 20
1024.0
 30
0.0
 40
165.0
100
AcDbArc
 50
270.0000000000002
 51
356.4669850070352
  0
LINE
  5
23D
330
1F
100
AcDbEntity
  8
URIMAT
  6
Continuous
 62
     7
100
AcDbLine
 10
1271.61039429999
 20
1559.00000000001
 30
0.0
 11
1141.682494689091
 21
1559.000000000032
 31
0.0
  0
LINE
  5
23F
330
1F
100
AcDbEntity
  8
URIMAT
  6
Continuous
 62
     7
100
AcDbLine
 10
1098.03699693534
 20
1516.252917936531
 30
0.0
 11
1062.194662409247
 21
1012.294501679101
 31
0.0
  0
ARC
  5
240
330
1F
100
AcDbEntity
  8
URIMAT
  6
Continuous
 62
     7
100
AcDbCircle
 10
1141.68249468904
 20
1553.927899610982
 30
0.0
 40
5.07210038906419
100
AcDbArc
 50
89.99999999999227
 51
115.0915853599147
  0
ARC
  5
241
330
1F
100
AcDbEntity
  8
URIMAT
  6
Continuous
 62
     7
100
AcDbCircle
 10
1132.948811382758
 20
1513.76993344422
 30
0.0
 40
35.0
100
AcDbArc
 50
92.63357679231019
 51
173.4716373619338
  0
ARC
  5
242
330
1F
100
AcDbEntity
  8
URIMAT
  6
Continuous
 62
     7
100
AcDbCircle
 10
1361.082630351178
 20
-3445.986104975703
 30
0.0
 40
5000.0
100
AcDbArc
 50
91.0253310272518
 51
92.63357679231011
  0
ARC
  5
243
330
1F
100
AcDbEntity
  8
URIMAT
  6
Continuous
 62
     7
100
AcDbCircle
 10
1203.141550736949
 20
1422.676688129573
 30
0.0
 40
150.0
100
AcDbArc
 50
115.0915853599154
 51
127.6163802837783
  0
ARC
  5
244
330
1F
100
AcDbEntity
  8
URIMAT
  6
Continuous
 62
     7
100
AcDbCircle
 10
-2062.278773706963
 20
328.5077568590168
 30
0.0
 40
3000.0
100
AcDbArc
 50
5.940603075311767
 51
10.04850256656214
  0
LINE
  5
245
330
1F
100
AcDbEntity
  8
URIMAT
  6
Continuous
 62
     7
100
AcDbLine
 10
931.6103942999998
 20
640.9999999999899
 30
0.0
 11
929.6103942999996
 21
638.99999999999
 31
0.0
  0
LINE
  5
246
330
1F
100
AcDbEntity
  8
URIMAT
  6
Continuous
 62
     7
100
AcDbLine
 10
921.6103942999996
 20
638.9999999999908
 30
0.0
 11
1271.6103943
 21
638.99999999999
 31
0.0
  0
LINE
  5
247
330
1F
100
AcDbEntity
  8
URIMAT
  6
Continuous
 62
     7
100
AcDbLine
 10
956.6103942999998
 20
640.9999999999899
 30
0.0
 11
931.6103942999998
 21
640.9999999999899
 31
0.0
  0
ARC
  5
248
330
1F
100
AcDbEntity
  8
URIMAT
  6
Continuous
 62
     7
100
AcDbCircle
 10
897.6103942999987
 20
852.9999999999908
 30
0.0
 40
6.000000000000003
100
AcDbArc
 50
8.466055934055761
 51
188.4660559340558
  0
ARC
  5
249
330
1F
100
AcDbEntity
  8
URIMAT
  6
Continuous
 62
     7
100
AcDbCircle
 10
894.3459696944444
 20
1116.887217166018
 30
0.0
 40
300.0
100
AcDbArc
 50
281.8718609393073
 51
338.9310819334233
  0
LINE
  5
24A
330
1F
100
AcDbEntity
  8
URIMAT
  6
Continuous
 62
     7
100
AcDbLine
 10
947.824250548936
 20
650.99999999999
 30
0.0
 11
930.3954072078097
 21
650.9999999999892
 31
0.0
  0
ARC
  5
24B
330
1F
100
AcDbEntity
  8
URIMAT
  6
Continuous
 62
     7
100
AcDbCircle
 10
921.1499794098417
 20
841.4159711003749
 30
0.0
 40
15.0
100
AcDbArc
 50
190.4757995539344
 51
265.0000000000018
  0
ARC
  5
24C
330
1F
100
AcDbEntity
  8
URIMAT
  6
Continuous
 62
     7
100
AcDbCircle
 10
-2043.595373570115
 20
293.2280544296837
 30
0.0
 40
3000.0
100
AcDbArc
 50
10.47579955393442
 51
10.77569315847908
  0
ARC
  5
24D
330
1F
100
AcDbEntity
  8
URIMAT
  6
Continuous
 62
     7
100
AcDbCircle
 10
-2062.278773706963
 20
328.5077568590168
 30
0.0
 40
3010.0
100
AcDbArc
 50
6.150491320178525
 51
9.410454487538183
  0
ARC
  5
24E
330
1F
100
AcDbEntity
  8
URIMAT
  6
Continuous
 62
     7
100
AcDbCircle
 10
921.1499794098417
 20
841.4159711003749
 30
0.0
 40
25.0
100
AcDbArc
 50
236.1202362969355
 51
265.0000000000018
  0
LINE
  5
252
330
1F
100
AcDbEntity
  8
URIMAT
  6
Continuous
 62
     7
100
AcDbLine
 10
485.0500000000001
 20
1981.800000000001
 30
0.0
 11
476.4999999999998
 21
1981.800000000001
 31
0.0
  0
ARC
  5
253
330
1F
100
AcDbEntity
  8
URIMAT
  6
Continuous
 62
     7
100
AcDbCircle
 10
599.8339938074366
 20
1953.115597770933
 30
0.0
 40
250.0000000000001
100
AcDbArc
 50
204.8514647825526
 51
238.599480941135
  0
ARC
  5
254
330
1F
100
AcDbEntity
  8
URIMAT
  6
Continuous
 62
     7
100
AcDbCircle
 10
479.9999999999998
 20
1756.799999999998
 30
0.0
 40
20.0
100
AcDbArc
 50
238.5994809411354
 51
301.4004947197831
  0
ARC
  5
255
330
1F
100
AcDbEntity
  8
URIMAT
  6
Continuous
 62
     7
100
AcDbCircle
 10
369.8359021878284
 20
1909.036069596954
 30
0.0
 40
20.0
100
AcDbArc
 50
188.1174252836387
 51
199.2450310121887
  0
ARC
  5
256
330
1F
100
AcDbEntity
  8
URIMAT
  6
Continuous
 62
     7
100
AcDbCircle
 10
599.8339938074366
 20
1953.115597770933
 30
0.0
 40
238.0000000000001
100
AcDbArc
 50
204.8514647825526
 51
238.599480941135
  0
ARC
  5
257
330
1F
100
AcDbEntity
  8
URIMAT
  6
Continuous
 62
     7
100
AcDbCircle
 10
479.9999999999998
 20
1756.799999999998
 30
0.0
 40
8.0
100
AcDbArc
 50
238.5994809411335
 51
301.4004947197831
  0
ARC
  5
258
330
1F
100
AcDbEntity
  8
URIMAT
  6
Continuous
 62
     7
100
AcDbCircle
 10
408.7986863758114
 20
1999.505106377412
 30
0.0
 40
100.0000000000001
100
AcDbArc
 50
224.1647098347456
 51
239.4240376505633
  0
ARC
  5
259
330
1F
100
AcDbEntity
  8
URIMAT
  6
Continuous
 62
     7
100
AcDbCircle
 10
382.5302181273725
 20
1909.126663659385
 30
0.0
 40
20.0
100
AcDbArc
 50
188.2922365983461
 51
199.6584747297854
  0
ARC
  5
25A
330
1F
100
AcDbEntity
  8
URIMAT
  6
Continuous
 62
     7
100
AcDbCircle
 10
917.4241155985336
 20
2100.209154872242
 30
0.0
 40
588.0
100
AcDbArc
 50
199.6584747297891
 51
204.8514647825526
  0
ARC
  5
25B
330
1F
100
AcDbEntity
  8
URIMAT
  6
Continuous
 62
     7
100
AcDbCircle
 10
352.8438579331943
 20
1904.799999999999
 30
0.0
 40
10.0
100
AcDbArc
 50
8.292236598333781
 51
59.42403765056262
  0
LINE
  5
25C
330
1F
100
AcDbEntity
  8
URIMAT
  6
Continuous
 62
     7
100
AcDbLine
 10
310.0000000000002
 20
2116.799999999999
 30
0.0
 11
650.0000000000019
 21
2116.799999999999
 31
0.0
  0
ARC
  5
25D
330
1F
100
AcDbEntity
  8
URIMAT
  6
Continuous
 62
     7
100
AcDbCircle
 10
917.4241155985336
 20
2100.209154872242
 30
0.0
 40
600.0
100
AcDbArc
 50
199.2450310121934
 51
204.8514647825526
  0
ARC
  5
25E
330
1F
100
AcDbEntity
  8
URIMAT
  6
Continuous
 62
     7
100
AcDbCircle
 10
449.4503671371084
 20
1778.590081471695
 30
0.0
 40
200.0000000000001
100
AcDbArc
 50
101.9963742992003
 51
123.6245775478077
  0
ARC
  5
25F
330
1F
100
AcDbEntity
  8
URIMAT
  6
Continuous
 62
     7
100
AcDbCircle
 10
344.2380975138969
 20
1936.799999999999
 30
0.0
 40
10.0
100
AcDbArc
 50
123.6245775478075
 51
224.1647098347452
  0
ARC
  5
260
330
1F
100
AcDbEntity
  8
URIMAT
  6
Continuous
 62
     7
100
AcDbCircle
 10
340.1364793926007
 20
1904.799999999999
 30
0.0
 40
10.0
100
AcDbArc
 50
8.117425283729861
 51
46.58268736300963
  0
ARC
  5
261
330
1F
100
AcDbEntity
  8
URIMAT
  6
Continuous
 62
     7
100
AcDbCircle
 10
2309.986300414323
 20
2109.397422406582
 30
0.0
 40
2000.000000000001
100
AcDbArc
 50
179.7879312889804
 51
184.3978791763612
  0
ARC
  5
262
330
1F
100
AcDbEntity
  8
URIMAT
  6
Continuous
 62
     7
100
AcDbCircle
 10
730.9429400133869
 20
2232.474091647558
 30
0.0
 40
500.0000000000002
100
AcDbArc
 50
214.2358094214448
 51
219.9783586407607
  0
ARC
  5
264
330
1F
100
AcDbEntity
  8
URIMAT
  6
Continuous
 62
     7
100
AcDbCircle
 10
360.1660061925652
 20
1953.115597770933
 30
0.0
 40
250.0000000000001
100
AcDbArc
 50
301.4005190588652
 51
335.1485352174476
  0
ARC
  5
266
330
1F
100
AcDbEntity
  8
URIMAT
  6
Continuous
 62
     7
100
AcDbCircle
 10
590.1640978121734
 20
1909.036069596954
 30
0.0
 40
20.0
100
AcDbArc
 50
340.7549689878114
 51
351.8825747163618
  0
ARC
  5
267
330
1F
100
AcDbEntity
  8
URIMAT
  6
Continuous
 62
     7
100
AcDbCircle
 10
360.1660061925652
 20
1953.115597770933
 30
0.0
 40
238.0000000000001
100
AcDbArc
 50
301.4005190588652
 51
335.1485352174476
  0
ARC
  5
269
330
1F
100
AcDbEntity
  8
URIMAT
  6
Continuous
 62
     7
100
AcDbCircle
 10
551.2013136241905
 20
1999.505106377412
 30
0.0
 40
100.0000000000001
100
AcDbArc
 50
300.5759623494366
 51
315.8352901652544
  0
ARC
  5
26A
330
1F
100
AcDbEntity
  8
URIMAT
  6
Continuous
 62
     7
100
AcDbCircle
 10
577.4697818726292
 20
1909.126663659385
 30
0.0
 40
20.0
100
AcDbArc
 50
340.341525270215
 51
351.7077634016541
  0
ARC
  5
26B
330
1F
100
AcDbEntity
  8
URIMAT
  6
Continuous
 62
     7
100
AcDbCircle
 10
42.57588440146991
 20
2100.209154872242
 30
0.0
 40
588.0
100
AcDbArc
 50
335.1485352174476
 51
340.3415252702109
  0
ARC
  5
26C
330
1F
100
AcDbEntity
  8
URIMAT
  6
Continuous
 62
     7
100
AcDbCircle
 10
607.1561420668079
 20
1904.799999999999
 30
0.0
 40
10.0
100
AcDbArc
 50
120.5759623494368
 51
171.7077634016663
  0
ARC
  5
26E
330
1F
100
AcDbEntity
  8
URIMAT
  6
Continuous
 62
     7
100
AcDbCircle
 10
42.57588440146991
 20
2100.209154872242
 30
0.0
 40
600.0
100
AcDbArc
 50
335.1485352174476
 51
340.7549689878068
  0
ARC
  5
26F
330
1F
100
AcDbEntity
  8
URIMAT
  6
Continuous
 62
     7
100
AcDbCircle
 10
510.5496328628941
 20
1778.590081471695
 30
0.0
 40
200.0000000000001
100
AcDbArc
 50
56.37542245219229
 51
78.00362570079966
  0
ARC
  5
270
330
1F
100
AcDbEntity
  8
URIMAT
  6
Continuous
 62
     7
100
AcDbCircle
 10
615.7619024861052
 20
1936.799999999999
 30
0.0
 40
10.0
100
AcDbArc
 50
315.8352901652548
 51
56.37542245219322
  0
ARC
  5
271
330
1F
100
AcDbEntity
  8
URIMAT
  6
Continuous
 62
     7
100
AcDbCircle
 10
619.8635206074016
 20
1904.799999999999
 30
0.0
 40
10.0
100
AcDbArc
 50
133.4173126369904
 51
171.8825747162702
  0
ARC
  5
272
330
1F
100
AcDbEntity
  8
URIMAT
  6
Continuous
 62
     7
100
AcDbCircle
 10
229.0570599866155
 20
2232.474091647558
 30
0.0
 40
500.0000000000002
100
AcDbArc
 50
320.0216413592394
 51
325.7641905785553
  0
ARC
  5
273
330
1F
100
AcDbEntity
  8
URIMAT
  6
Continuous
 62
     7
100
AcDbCircle
 10
-1349.986300414319
 20
2109.397422406582
 30
0.0
 40
2000.000000000001
100
AcDbArc
 50
355.6021208236388
 51
0.2120687110194625
  0
ARC
  5
274
330
1F
100
AcDbEntity
  8
URIMAT
  6
Continuous
 62
     7
100
AcDbCircle
 10
480.0000000000003
 20
1634.820623935573
 30
0.0
 40
346.9793760644275
100
AcDbArc
 50
78.00362570079021
 51
101.9963997031423
  0
LINE
  5
275
330
1F
100
AcDbEntity
  8
URIMAT
  6
Continuous
 62
     7
100
AcDbLine
 10
588.0000000000016
 20
2096.799999999999
 30
0.0
 11
588.0000000000016
 21
2086.799999999997
 31
0.0
  0
LINE
  5
276
330
1F
100
AcDbEntity
  8
URIMAT
  6
Continuous
 62
     7
100
AcDbLine
 10
630.0000000000014
 20
2096.799999999999
 30
0.0
 11
630.0000000000014
 21
2086.799999999997
 31
0.0
  0
LINE
  5
277
330
1F
100
AcDbEntity
  8
URIMAT
  6
Continuous
 62
     7
100
AcDbLine
 10
630.0000000000014
 20
2086.799999999997
 30
0.0
 11
588.0000000000016
 21
2086.799999999997
 31
0.0
  0
LINE
  5
278
330
1F
100
AcDbEntity
  8
URIMAT
  6
Continuous
 62
     7
100
AcDbLine
 10
630.0000000000014
 20
2096.799999999999
 30
0.0
 11
588.0000000000016
 21
2096.799999999999
 31
0.0
  0
LINE
  5
279
330
1F
100
AcDbEntity
  8
URIMAT
  6
Continuous
 62
     7
100
AcDbLine
 10
367.7499999999993
 20
2116.799999999999
 30
0.0
 11
367.7499999999993
 21
2156.8982596854
 31
0.0
  0
LINE
  5
27A
330
1F
100
AcDbEntity
  8
URIMAT
  6
Continuous
 62
     7
100
AcDbLine
 10
372.2499999999993
 20
2116.799999999999
 30
0.0
 11
372.2499999999993
 21
2156.8982596854
 31
0.0
  0
ARC
  5
27B
330
1F
100
AcDbEntity
  8
URIMAT
  6
Continuous
 62
     7
100
AcDbCircle
 10
357.2499999999993
 20
2156.8982596854
 30
0.0
 40
15.00000000000001
100
AcDbArc
 50
0.0
 51
31.78833061704947
  0
ARC
  5
27C
330
1F
100
AcDbEntity
  8
URIMAT
  6
Continuous
 62
     7
100
AcDbCircle
 10
382.7499999999993
 20
2156.8982596854
 30
0.0
 40
15.00000000000001
100
AcDbArc
 50
148.2116693828997
 51
180.0
  0
LINE
  5
27D
330
1F
100
AcDbEntity
  8
URIMAT
  6
Continuous
 62
     7
100
AcDbLine
 10
372.9999999999993
 20
2118.610000000001
 30
0.0
 11
366.9999999999993
 21
2119.879999999999
 31
0.0
  0
LINE
  5
27E
330
1F
100
AcDbEntity
  8
URIMAT
  6
Continuous
 62
     7
100
AcDbLine
 10
372.9999999999993
 20
2121.15
 30
0.0
 11
366.9999999999993
 21
2122.42
 31
0.0
  0
LINE
  5
27F
330
1F
100
AcDbEntity
  8
URIMAT
  6
Continuous
 62
     7
100
AcDbLine
 10
372.9999999999993
 20
2123.690000000001
 30
0.0
 11
366.9999999999993
 21
2124.959999999999
 31
0.0
  0
LINE
  5
280
330
1F
100
AcDbEntity
  8
URIMAT
  6
Continuous
 62
     7
100
AcDbLine
 10
372.9999999999993
 20
2126.23
 30
0.0
 11
366.9999999999993
 21
2127.5
 31
0.0
  0
LINE
  5
281
330
1F
100
AcDbEntity
  8
URIMAT
  6
Continuous
 62
     7
100
AcDbLine
 10
372.9999999999993
 20
2128.77
 30
0.0
 11
366.9999999999993
 21
2130.040000000001
 31
0.0
  0
LINE
  5
282
330
1F
100
AcDbEntity
  8
URIMAT
  6
Continuous
 62
     7
100
AcDbLine
 10
372.9999999999993
 20
2131.309999999999
 30
0.0
 11
366.9999999999993
 21
2132.58
 31
0.0
  0
LINE
  5
283
330
1F
100
AcDbEntity
  8
URIMAT
  6
Continuous
 62
     7
100
AcDbLine
 10
372.9999999999993
 20
2133.85
 30
0.0
 11
366.9999999999993
 21
2135.119999999999
 31
0.0
  0
LINE
  5
284
330
1F
100
AcDbEntity
  8
URIMAT
  6
Continuous
 62
     7
100
AcDbLine
 10
372.9999999999993
 20
2136.389999999999
 30
0.0
 11
366.9999999999993
 21
2137.66
 31
0.0
  0
LINE
  5
285
330
1F
100
AcDbEntity
  8
URIMAT
  6
Continuous
 62
     7
100
AcDbLine
 10
372.9999999999993
 20
2138.93
 30
0.0
 11
366.9999999999993
 21
2140.200000000001
 31
0.0
  0
LINE
  5
286
330
1F
100
AcDbEntity
  8
URIMAT
  6
Continuous
 62
     7
100
AcDbLine
 10
372.9999999999993
 20
2141.469999999999
 30
0.0
 11
366.9999999999993
 21
2142.74
 31
0.0
  0
LINE
  5
287
330
1F
100
AcDbEntity
  8
URIMAT
  6
Continuous
 62
     7
100
AcDbLine
 10
372.9999999999993
 20
2144.01
 30
0.0
 11
366.9999999999993
 21
2145.280000000001
 31
0.0
  0
LINE
  5
288
330
1F
100
AcDbEntity
  8
URIMAT
  6
Continuous
 62
     7
100
AcDbLine
 10
372.9999999999993
 20
2156.549999999999
 30
0.0
 11
366.9999999999993
 21
2157.82
 31
0.0
  0
LINE
  5
289
330
1F
100
AcDbEntity
  8
URIMAT
  6
Continuous
 62
     7
100
AcDbLine
 10
372.8420196326999
 20
2159.1234391777
 30
0.0
 11
367.3678088124991
 21
2160.2821471347
 31
0.0
  0
LINE
  5
28A
330
1F
100
AcDbEntity
  8
URIMAT
  6
Continuous
 62
     7
100
AcDbLine
 10
372.2193739736988
 20
2161.795232508899
 30
0.0
 11
368.0949692854995
 21
2162.6682315012
 31
0.0
  0
LINE
  5
28B
330
1F
100
AcDbEntity
  8
URIMAT
  6
Continuous
 62
     7
100
AcDbLine
 10
372.9999999999993
 20
2146.549999999999
 30
0.0
 11
366.9999999999993
 21
2147.82
 31
0.0
  0
LINE
  5
28C
330
1F
100
AcDbEntity
  8
URIMAT
  6
Continuous
 62
     7
100
AcDbLine
 10
372.9999999999993
 20
2149.090000000001
 30
0.0
 11
366.9999999999993
 21
2150.360000000001
 31
0.0
  0
LINE
  5
28D
330
1F
100
AcDbEntity
  8
URIMAT
  6
Continuous
 62
     7
100
AcDbLine
 10
372.9999999999993
 20
2151.629999999999
 30
0.0
 11
366.9999999999993
 21
2152.9
 31
0.0
  0
LINE
  5
28E
330
1F
100
AcDbEntity
  8
URIMAT
  6
Continuous
 62
     7
100
AcDbLine
 10
372.9999999999993
 20
2154.17
 30
0.0
 11
366.9999999999993
 21
2155.440000000001
 31
0.0
  0
LINE
  5
28F
330
1F
100
AcDbEntity
  8
URIMAT
  6
Continuous
 62
     7
100
AcDbLine
 10
587.7806260263002
 20
2161.795232508899
 30
0.0
 11
591.9050307144996
 21
2162.6682315012
 31
0.0
  0
LINE
  5
290
330
1F
100
AcDbEntity
  8
URIMAT
  6
Continuous
 62
     7
100
AcDbLine
 10
587.1579803672992
 20
2159.1234391777
 30
0.0
 11
592.6321911875
 21
2160.2821471347
 31
0.0
  0
LINE
  5
291
330
1F
100
AcDbEntity
  8
URIMAT
  6
Continuous
 62
     7
100
AcDbLine
 10
586.9999999999997
 20
2156.549999999999
 30
0.0
 11
592.9999999999997
 21
2157.82
 31
0.0
  0
ARC
  5
292
330
1F
100
AcDbEntity
  8
URIMAT
  6
Continuous
 62
     7
100
AcDbCircle
 10
602.7499999999998
 20
2156.8982596854
 30
0.0
 40
15.00000000000001
100
AcDbArc
 50
148.21166938295
 51
180.0
  0
ARC
  5
293
330
1F
100
AcDbEntity
  8
URIMAT
  6
Continuous
 62
     7
100
AcDbCircle
 10
577.2499999999998
 20
2156.8982596854
 30
0.0
 40
15.00000000000001
100
AcDbArc
 50
0.0000000000001719
 51
31.78833061710012
  0
LINE
  5
294
330
1F
100
AcDbEntity
  8
URIMAT
  6
Continuous
 62
     7
100
AcDbLine
 10
592.2499999999997
 20
2116.799999999999
 30
0.0
 11
592.2499999999997
 21
2156.8982596854
 31
0.0
  0
LINE
  5
295
330
1F
100
AcDbEntity
  8
URIMAT
  6
Continuous
 62
     7
100
AcDbLine
 10
587.7499999999997
 20
2116.799999999999
 30
0.0
 11
587.7499999999997
 21
2156.8982596854
 31
0.0
  0
LINE
  5
296
330
1F
100
AcDbEntity
  8
URIMAT
  6
Continuous
 62
     7
100
AcDbLine
 10
586.9999999999997
 20
2118.610000000001
 30
0.0
 11
592.9999999999997
 21
2119.879999999999
 31
0.0
  0
LINE
  5
297
330
1F
100
AcDbEntity
  8
URIMAT
  6
Continuous
 62
     7
100
AcDbLine
 10
586.9999999999997
 20
2121.15
 30
0.0
 11
592.9999999999997
 21
2122.42
 31
0.0
  0
LINE
  5
298
330
1F
100
AcDbEntity
  8
URIMAT
  6
Continuous
 62
     7
100
AcDbLine
 10
586.9999999999997
 20
2123.690000000001
 30
0.0
 11
592.9999999999997
 21
2124.959999999999
 31
0.0
  0
LINE
  5
299
330
1F
100
AcDbEntity
  8
URIMAT
  6
Continuous
 62
     7
100
AcDbLine
 10
586.9999999999997
 20
2126.23
 30
0.0
 11
592.9999999999997
 21
2127.5
 31
0.0
  0
LINE
  5
29A
330
1F
100
AcDbEntity
  8
URIMAT
  6
Continuous
 62
     7
100
AcDbLine
 10
586.9999999999997
 20
2128.77
 30
0.0
 11
592.9999999999997
 21
2130.040000000001
 31
0.0
  0
LINE
  5
29B
330
1F
100
AcDbEntity
  8
URIMAT
  6
Continuous
 62
     7
100
AcDbLine
 10
586.9999999999997
 20
2131.309999999999
 30
0.0
 11
592.9999999999997
 21
2132.58
 31
0.0
  0
LINE
  5
29C
330
1F
100
AcDbEntity
  8
URIMAT
  6
Continuous
 62
     7
100
AcDbLine
 10
586.9999999999997
 20
2133.85
 30
0.0
 11
592.9999999999997
 21
2135.119999999999
 31
0.0
  0
LINE
  5
29D
330
1F
100
AcDbEntity
  8
URIMAT
  6
Continuous
 62
     7
100
AcDbLine
 10
586.9999999999997
 20
2136.389999999999
 30
0.0
 11
592.9999999999997
 21
2137.66
 31
0.0
  0
LINE
  5
29E
330
1F
100
AcDbEntity
  8
URIMAT
  6
Continuous
 62
     7
100
AcDbLine
 10
586.9999999999997
 20
2138.93
 30
0.0
 11
592.9999999999997
 21
2140.200000000001
 31
0.0
  0
LINE
  5
29F
330
1F
100
AcDbEntity
  8
URIMAT
  6
Continuous
 62
     7
100
AcDbLine
 10
586.9999999999997
 20
2141.469999999999
 30
0.0
 11
592.9999999999997
 21
2142.74
 31
0.0
  0
LINE
  5
2A0
330
1F
100
AcDbEntity
  8
URIMAT
  6
Continuous
 62
     7
100
AcDbLine
 10
586.9999999999997
 20
2144.01
 30
0.0
 11
592.9999999999997
 21
2145.280000000001
 31
0.0
  0
LINE
  5
2A1
330
1F
100
AcDbEntity
  8
URIMAT
  6
Continuous
 62
     7
100
AcDbLine
 10
586.9999999999997
 20
2146.549999999999
 30
0.0
 11
592.9999999999997
 21
2147.82
 31
0.0
  0
LINE
  5
2A2
330
1F
100
AcDbEntity
  8
URIMAT
  6
Continuous
 62
     7
100
AcDbLine
 10
586.9999999999997
 20
2149.090000000001
 30
0.0
 11
592.9999999999997
 21
2150.360000000001
 31
0.0
  0
LINE
  5
2A3
330
1F
100
AcDbEntity
  8
URIMAT
  6
Continuous
 62
     7
100
AcDbLine
 10
586.9999999999997
 20
2151.629999999999
 30
0.0
 11
592.9999999999997
 21
2152.9
 31
0.0
  0
LINE
  5
2A4
330
1F
100
AcDbEntity
  8
URIMAT
  6
Continuous
 62
     7
100
AcDbLine
 10
586.9999999999997
 20
2154.17
 30
0.0
 11
592.9999999999997
 21
2155.440000000001
 31
0.0
  0
ARC
  5
2A7
330
1F
100
AcDbEntity
  8
URIMAT
  6
Continuous
 62
     7
100
AcDbCircle
 10
480.0000000000017
 20
1634.820623935573
 30
0.0
 40
346.9793760644275
100
AcDbArc
 50
101.9963742992097
 51
115.5837388968734
  0
ARC
  5
2A8
330
1F
100
AcDbEntity
  8
URIMAT
  6
Continuous
 62
     7
100
AcDbCircle
 10
325.8456736756673
 20
1956.800000000001
 30
0.0
 40
10.0
100
AcDbArc
 50
184.3978791763624
 51
295.5837388968742
  0
ARC
  5
2A9
330
1F
100
AcDbEntity
  8
URIMAT
  6
Continuous
 62
     7
100
AcDbCircle
 10
42.57588440146991
 20
2100.209154872242
 30
0.0
 40
600.0
100
AcDbArc
 50
340.7549689878068
 51
340.9931056935694
  0
ARC
  5
2AA
330
1F
100
AcDbEntity
  8
URIMAT
  6
Continuous
 62
     7
100
AcDbCircle
 10
619.8635206074016
 20
1904.799999999999
 30
0.0
 40
10.0
100
AcDbArc
 50
171.8825747162702
 51
180.0
  0
ARC
  5
2AB
330
1F
100
AcDbEntity
  8
URIMAT
  6
Continuous
 62
     7
100
AcDbCircle
 10
607.1561420668079
 20
1904.799999999999
 30
0.0
 40
10.0
100
AcDbArc
 50
171.7077634016663
 51
179.9999999994268
  0
ARC
  5
2AC
330
1F
100
AcDbEntity
  8
URIMAT
  6
Continuous
 62
     7
100
AcDbCircle
 10
42.57588440146991
 20
2100.209154872242
 30
0.0
 40
588.0
100
AcDbArc
 50
340.3415252702109
 51
340.5898332790301
  0
ARC
  5
2AD
330
1F
100
AcDbEntity
  8
URIMAT
  6
Continuous
 62
     7
100
AcDbCircle
 10
480.0000000000003
 20
1634.820623935573
 30
0.0
 40
346.9793760644275
100
AcDbArc
 50
64.41626110312661
 51
78.00362570079021
  0
ARC
  5
2AE
330
1F
100
AcDbEntity
  8
URIMAT
  6
Continuous
 62
     7
100
AcDbCircle
 10
634.1543263243354
 20
1956.800000000001
 30
0.0
 40
10.0
100
AcDbArc
 50
244.4162611031262
 51
355.602120823638
  0
CIRCLE
  5
2B3
330
1F
100
AcDbEntity
  8
URIMAT
  6
Continuous
 62
     7
100
AcDbCircle
 10
479.9999999999998
 20
1916.799999999999
 30
0.0
 40
23.0
  0
CIRCLE
  5
2B4
330
1F
100
AcDbEntity
  8
URIMAT
  6
Continuous
 62
     7
100
AcDbCircle
 10
479.9999999999998
 20
1916.799999999999
 30
0.0
 40
5.5
  0
CIRCLE
  5
2B6
330
1F
100
AcDbEntity
  8
URIMAT
  6
Continuous
 62
     7
100
AcDbCircle
 10
479.9999999999998
 20
1916.799999999999
 30
0.0
 40
64.0
  0
ARC
  5
2B7
330
1F
100
AcDbEntity
  8
URIMAT
  6
Continuous
 62
     7
100
AcDbCircle
 10
479.9999999999998
 20
1916.799999999999
 30
0.0
 40
60.0
100
AcDbArc
 50
135.0461687847267
 51
134.895486704797
  0
LINE
  5
2B8
330
1F
100
AcDbEntity
  8
URIMAT
  6
Continuous
 62
     7
100
AcDbLine
 10
1007.6103943
 20
817.0445941201
 30
0.0
 11
919.5483139775133
 21
826.5017273098612
 31
0.0
  0
LINE
  5
2B9
330
1F
100
AcDbEntity
  8
URIMAT
  6
Continuous
 62
     7
100
AcDbLine
 10
1004.8416424839
 20
807.24863014067
 30
0.0
 11
918.4703500581862
 21
816.5599942228162
 31
0.0
  0
LINE
  5
2BA
330
1F
100
AcDbEntity
  8
URIMAT
  6
Continuous
 62
     7
100
AcDbLine
 10
963.8662984693253
 20
774.6184260965642
 30
0.0
 11
947.8242505489363
 21
650.99999999999
 31
0.0
  0
LINE
  5
2BB
330
1F
100
AcDbEntity
  8
URIMAT
  6
Continuous
 62
     7
100
AcDbLine
 10
973.783145107205
 20
773.3315101083302
 30
0.0
 11
956.6103942999998
 21
640.9999999999899
 31
0.0
  0
ARC
  5
2BE
330
1F
100
AcDbEntity
  8
URIMAT
  6
EXLTYPE2
 62
     7
100
AcDbCircle
 10
550.0
 20
713.0
 30
0.0
 40
4.0
100
AcDbArc
 50
0.0
 51
180.0
  0
ARC
  5
2BF
330
1F
100
AcDbEntity
  8
URIMAT
  6
EXLTYPE2
 62
     7
100
AcDbCircle
 10
558.4999999999999
 20
723.0
 30
0.0
 40
4.0
100
AcDbArc
 50
0.0
 51
90.0000000000049
  0
ARC
  5
2C0
330
1F
100
AcDbEntity
  8
URIMAT
  6
EXLTYPE2
 62
     7
100
AcDbCircle
 10
531.5641518092184
 20
731.1001275424289
 30
0.0
 40
4.100629380815988
100
AcDbArc
 50
203.4063456989434
 51
269.1036064163744
  0
LINE
  5
2C1
330
1F
100
AcDbEntity
  8
URIMAT
  6
EXLTYPE2
 62
     7
100
AcDbLine
 10
558.4999999999999
 20
727.0
 30
0.0
 11
531.4999999999998
 21
727.0
 31
0.0
  0
ARC
  5
2C2
330
1F
100
AcDbEntity
  8
URIMAT
  6
EXLTYPE2
 62
     7
100
AcDbCircle
 10
480.0
 20
709.0
 30
0.0
 40
52.0
100
AcDbArc
 50
23.19972199704544
 51
156.8002711736416
  0
ARC
  5
2C9
330
1F
100
AcDbEntity
  8
URIMAT
  6
EXLTYPE2
 62
     7
100
AcDbCircle
 10
550.0
 20
705.0
 30
0.0
 40
4.0
100
AcDbArc
 50
180.0
 51
0.0
  0
ARC
  5
2CA
330
1F
100
AcDbEntity
  8
URIMAT
  6
EXLTYPE2
 62
     7
100
AcDbCircle
 10
558.4999999999999
 20
695.0
 30
0.0
 40
4.0
100
AcDbArc
 50
269.999999999995
 51
0.0
  0
ARC
  5
2CB
330
1F
100
AcDbEntity
  8
URIMAT
  6
EXLTYPE2
 62
     7
100
AcDbCircle
 10
531.5641518092184
 20
686.8998724575707
 30
0.0
 40
4.100629380815988
100
AcDbArc
 50
90.89639358362559
 51
156.5936543010568
  0
LINE
  5
2CC
330
1F
100
AcDbEntity
  8
URIMAT
  6
EXLTYPE2
 62
     7
100
AcDbLine
 10
558.4999999999999
 20
691.0
 30
0.0
 11
531.4999999999998
 21
691.0
 31
0.0
  0
LINE
  5
2D1
330
1F
100
AcDbEntity
  8
URIMAT
  6
EXLTYPE2
 62
     7
100
AcDbLine
 10
546.0
 20
713.0
 30
0.0
 11
546.0
 21
705.0
 31
0.0
  0
LINE
  5
2D2
330
1F
100
AcDbEntity
  8
URIMAT
  6
EXLTYPE2
 62
     7
100
AcDbLine
 10
554.0
 20
713.0
 30
0.0
 11
554.0
 21
705.0
 31
0.0
  0
LINE
  5
2D3
330
1F
100
AcDbEntity
  8
URIMAT
  6
EXLTYPE2
 62
     7
100
AcDbLine
 10
562.5
 20
723.0
 30
0.0
 11
562.5
 21
695.0
 31
0.0
  0
ARC
  5
2D4
330
1F
100
AcDbEntity
  8
URIMAT
  6
EXLTYPE2
 62
     7
100
AcDbCircle
 10
410.0
 20
713.0
 30
0.0
 40
4.0
100
AcDbArc
 50
0.0
 51
180.0
  0
ARC
  5
2D5
330
1F
100
AcDbEntity
  8
URIMAT
  6
EXLTYPE2
 62
     7
100
AcDbCircle
 10
401.4999999999999
 20
723.0
 30
0.0
 40
4.0
100
AcDbArc
 50
89.99999999999509
 51
180.0
  0
ARC
  5
2D6
330
1F
100
AcDbEntity
  8
URIMAT
  6
EXLTYPE2
 62
     7
100
AcDbCircle
 10
428.4358481907821
 20
731.1001275424289
 30
0.0
 40
4.100629380815988
100
AcDbArc
 50
270.8963935836256
 51
336.5936543010568
  0
LINE
  5
2D7
330
1F
100
AcDbEntity
  8
URIMAT
  6
EXLTYPE2
 62
     7
100
AcDbLine
 10
401.4999999999999
 20
727.0
 30
0.0
 11
428.5000000000005
 21
727.0
 31
0.0
  0
ARC
  5
2DF
330
1F
100
AcDbEntity
  8
URIMAT
  6
EXLTYPE2
 62
     7
100
AcDbCircle
 10
410.0
 20
705.0
 30
0.0
 40
4.0
100
AcDbArc
 50
180.0
 51
0.0
  0
ARC
  5
2E0
330
1F
100
AcDbEntity
  8
URIMAT
  6
EXLTYPE2
 62
     7
100
AcDbCircle
 10
401.4999999999999
 20
695.0
 30
0.0
 40
4.0
100
AcDbArc
 50
180.0
 51
270.0000000000049
  0
ARC
  5
2E1
330
1F
100
AcDbEntity
  8
URIMAT
  6
EXLTYPE2
 62
     7
100
AcDbCircle
 10
428.4358481907821
 20
686.8998724575707
 30
0.0
 40
4.100629380815988
100
AcDbArc
 50
23.40634569894318
 51
89.10360641637442
  0
LINE
  5
2E2
330
1F
100
AcDbEntity
  8
URIMAT
  6
EXLTYPE2
 62
     7
100
AcDbLine
 10
401.4999999999999
 20
691.0
 30
0.0
 11
428.5000000000005
 21
691.0
 31
0.0
  0
ARC
  5
2E3
330
1F
100
AcDbEntity
  8
URIMAT
  6
EXLTYPE2
 62
     7
100
AcDbCircle
 10
480.0
 20
709.0
 30
0.0
 40
52.0
100
AcDbArc
 50
203.1997219970454
 51
336.8002910214844
  0
LINE
  5
2E7
330
1F
100
AcDbEntity
  8
URIMAT
  6
EXLTYPE2
 62
     7
100
AcDbLine
 10
414.0
 20
713.0
 30
0.0
 11
414.0
 21
705.0
 31
0.0
  0
LINE
  5
2E8
330
1F
100
AcDbEntity
  8
URIMAT
  6
EXLTYPE2
 62
     7
100
AcDbLine
 10
406.0
 20
713.0
 30
0.0
 11
406.0
 21
705.0
 31
0.0
  0
LINE
  5
2E9
330
1F
100
AcDbEntity
  8
URIMAT
  6
EXLTYPE2
 62
     7
100
AcDbLine
 10
397.5
 20
723.0
 30
0.0
 11
397.5
 21
695.0
 31
0.0
  0
LINE
  5
2F7
330
1F
100
AcDbEntity
  8
URIMAT
  6
Continuous
 62
     7
100
AcDbLine
 10
536.0
 20
711.5199999999996
 30
0.0
 11
537.0
 21
711.5199999999996
 31
0.0
  0
LINE
  5
2F8
330
1F
100
AcDbEntity
  8
URIMAT
  6
Continuous
 62
     7
100
AcDbLine
 10
533.98
 20
709.4999999999997
 30
0.0
 11
533.98
 21
708.4999999999996
 31
0.0
  0
CIRCLE
  5
2F9
330
1F
100
AcDbEntity
  8
URIMAT
  6
Continuous
 62
     7
100
AcDbCircle
 10
536.5
 20
708.9999999999996
 30
0.0
 40
5.299999999999999
  0
LINE
  5
2FA
330
1F
100
AcDbEntity
  8
URIMAT
  6
Continuous
 62
     7
100
AcDbLine
 10
533.98
 20
708.4999999999996
 30
0.0
 11
534.6999999999998
 21
708.4999999999996
 31
0.0
  0
LINE
  5
2FB
330
1F
100
AcDbEntity
  8
URIMAT
  6
Continuous
 62
     7
100
AcDbLine
 10
533.98
 20
709.4999999999997
 30
0.0
 11
534.6999999999998
 21
709.4999999999997
 31
0.0
  0
LINE
  5
2FC
330
1F
100
AcDbEntity
  8
URIMAT
  6
Continuous
 62
     7
100
AcDbLine
 10
536.0
 20
711.5199999999996
 30
0.0
 11
536.0
 21
710.7999999999996
 31
0.0
  0
ARC
  5
2FD
330
1F
100
AcDbEntity
  8
URIMAT
  6
Continuous
 62
     7
100
AcDbCircle
 10
534.6999999999998
 20
710.7999999999996
 30
0.0
 40
1.3
100
AcDbArc
 50
270.0
 51
0.0
  0
ARC
  5
2FE
330
1F
100
AcDbEntity
  8
URIMAT
  6
Continuous
 62
     7
100
AcDbCircle
 10
534.6999999999998
 20
707.1999999999997
 30
0.0
 40
1.3
100
AcDbArc
 50
0.0
 51
89.99999999999996
  0
LINE
  5
2FF
330
1F
100
AcDbEntity
  8
URIMAT
  6
Continuous
 62
     7
100
AcDbLine
 10
536.0
 20
706.4799999999997
 30
0.0
 11
536.0
 21
707.1999999999997
 31
0.0
  0
LINE
  5
300
330
1F
100
AcDbEntity
  8
URIMAT
  6
Continuous
 62
     7
100
AcDbLine
 10
536.0
 20
706.4799999999997
 30
0.0
 11
537.0
 21
706.4799999999997
 31
0.0
  0
LINE
  5
301
330
1F
100
AcDbEntity
  8
URIMAT
  6
Continuous
 62
     7
100
AcDbLine
 10
537.0
 20
711.5199999999996
 30
0.0
 11
537.0
 21
710.7999999999996
 31
0.0
  0
ARC
  5
302
330
1F
100
AcDbEntity
  8
URIMAT
  6
Continuous
 62
     7
100
AcDbCircle
 10
538.2999999999997
 20
710.7999999999996
 30
0.0
 40
1.3
100
AcDbArc
 50
180.0
 51
270.0
  0
LINE
  5
303
330
1F
100
AcDbEntity
  8
URIMAT
  6
Continuous
 62
     7
100
AcDbLine
 10
539.02
 20
709.4999999999997
 30
0.0
 11
538.2999999999997
 21
709.4999999999997
 31
0.0
  0
LINE
  5
304
330
1F
100
AcDbEntity
  8
URIMAT
  6
Continuous
 62
     7
100
AcDbLine
 10
539.02
 20
709.4999999999997
 30
0.0
 11
539.02
 21
708.4999999999996
 31
0.0
  0
LINE
  5
305
330
1F
100
AcDbEntity
  8
URIMAT
  6
Continuous
 62
     7
100
AcDbLine
 10
539.02
 20
708.4999999999996
 30
0.0
 11
538.2999999999997
 21
708.4999999999996
 31
0.0
  0
ARC
  5
306
330
1F
100
AcDbEntity
  8
URIMAT
  6
Continuous
 62
     7
100
AcDbCircle
 10
538.2999999999997
 20
707.1999999999997
 30
0.0
 40
1.3
100
AcDbArc
 50
89.99999999999996
 51
180.0
  0
LINE
  5
307
330
1F
100
AcDbEntity
  8
URIMAT
  6
Continuous
 62
     7
100
AcDbLine
 10
537.0
 20
706.4799999999997
 30
0.0
 11
537.0
 21
707.1999999999997
 31
0.0
  0
LINE
  5
308
330
1F
100
AcDbEntity
  8
URIMAT
  6
Continuous
 62
     7
100
AcDbLine
 10
423.0
 20
711.5199999999996
 30
0.0
 11
424.0
 21
711.5199999999996
 31
0.0
  0
LINE
  5
309
330
1F
100
AcDbEntity
  8
URIMAT
  6
Continuous
 62
     7
100
AcDbLine
 10
420.98
 20
709.4999999999997
 30
0.0
 11
420.98
 21
708.4999999999996
 31
0.0
  0
CIRCLE
  5
30A
330
1F
100
AcDbEntity
  8
URIMAT
  6
Continuous
 62
     7
100
AcDbCircle
 10
423.5
 20
708.9999999999996
 30
0.0
 40
5.299999999999999
  0
LINE
  5
30B
330
1F
100
AcDbEntity
  8
URIMAT
  6
Continuous
 62
     7
100
AcDbLine
 10
420.98
 20
708.4999999999996
 30
0.0
 11
421.6999999999998
 21
708.4999999999996
 31
0.0
  0
LINE
  5
30C
330
1F
100
AcDbEntity
  8
URIMAT
  6
Continuous
 62
     7
100
AcDbLine
 10
420.98
 20
709.4999999999997
 30
0.0
 11
421.6999999999998
 21
709.4999999999997
 31
0.0
  0
LINE
  5
30D
330
1F
100
AcDbEntity
  8
URIMAT
  6
Continuous
 62
     7
100
AcDbLine
 10
423.0
 20
711.5199999999996
 30
0.0
 11
423.0
 21
710.7999999999996
 31
0.0
  0
ARC
  5
30E
330
1F
100
AcDbEntity
  8
URIMAT
  6
Continuous
 62
     7
100
AcDbCircle
 10
421.6999999999998
 20
710.7999999999996
 30
0.0
 40
1.3
100
AcDbArc
 50
270.0
 51
0.0
  0
ARC
  5
30F
330
1F
100
AcDbEntity
  8
URIMAT
  6
Continuous
 62
     7
100
AcDbCircle
 10
421.6999999999998
 20
707.1999999999997
 30
0.0
 40
1.3
100
AcDbArc
 50
0.0
 51
89.99999999999996
  0
LINE
  5
310
330
1F
100
AcDbEntity
  8
URIMAT
  6
Continuous
 62
     7
100
AcDbLine
 10
423.0
 20
706.4799999999997
 30
0.0
 11
423.0
 21
707.1999999999997
 31
0.0
  0
LINE
  5
311
330
1F
100
AcDbEntity
  8
URIMAT
  6
Continuous
 62
     7
100
AcDbLine
 10
423.0
 20
706.4799999999997
 30
0.0
 11
424.0
 21
706.4799999999997
 31
0.0
  0
LINE
  5
312
330
1F
100
AcDbEntity
  8
URIMAT
  6
Continuous
 62
     7
100
AcDbLine
 10
424.0
 20
711.5199999999996
 30
0.0
 11
424.0
 21
710.7999999999996
 31
0.0
  0
ARC
  5
313
330
1F
100
AcDbEntity
  8
URIMAT
  6
Continuous
 62
     7
100
AcDbCircle
 10
425.2999999999996
 20
710.7999999999996
 30
0.0
 40
1.3
100
AcDbArc
 50
180.0
 51
270.0
  0
LINE
  5
314
330
1F
100
AcDbEntity
  8
URIMAT
  6
Continuous
 62
     7
100
AcDbLine
 10
426.02
 20
709.4999999999997
 30
0.0
 11
425.2999999999996
 21
709.4999999999997
 31
0.0
  0
LINE
  5
315
330
1F
100
AcDbEntity
  8
URIMAT
  6
Continuous
 62
     7
100
AcDbLine
 10
426.02
 20
709.4999999999997
 30
0.0
 11
426.02
 21
708.4999999999996
 31
0.0
  0
LINE
  5
316
330
1F
100
AcDbEntity
  8
URIMAT
  6
Continuous
 62
     7
100
AcDbLine
 10
426.02
 20
708.4999999999996
 30
0.0
 11
425.2999999999996
 21
708.4999999999996
 31
0.0
  0
ARC
  5
317
330
1F
100
AcDbEntity
  8
URIMAT
  6
Continuous
 62
     7
100
AcDbCircle
 10
425.2999999999996
 20
707.1999999999997
 30
0.0
 40
1.3
100
AcDbArc
 50
89.99999999999996
 51
180.0
  0
LINE
  5
318
330
1F
100
AcDbEntity
  8
URIMAT
  6
Continuous
 62
     7
100
AcDbLine
 10
424.0
 20
706.4799999999997
 30
0.0
 11
424.0
 21
707.1999999999997
 31
0.0
  0
LINE
  5
319
330
1F
100
AcDbEntity
  8
URIMAT
  6
Continuous
 62
     7
100
AcDbLine
 10
1261.6103943
 20
756.5
 30
0.0
 11
1266.1103943
 21
746.4999999999999
 31
0.0
  0
LINE
  5
31A
330
1F
100
AcDbEntity
  8
URIMAT
  6
Continuous
 62
     7
100
AcDbLine
 10
1266.1103943
 20
746.5000000000009
 30
0.0
 11
1269.3103943
 21
746.5000000000009
 31
0.0
  0
LINE
  5
31B
330
1F
100
AcDbEntity
  8
URIMAT
  6
Continuous
 62
     7
100
AcDbLine
 10
1265.0703943
 20
756.5
 30
0.0
 11
1271.6103943
 21
756.5
 31
0.0
  0
LINE
  5
31C
330
1F
100
AcDbEntity
  8
URIMAT
  6
Continuous
 62
     7
100
AcDbLine
 10
1267.31735969004
 20
751.2005533253799
 30
0.0
 11
1271.6103943
 21
751.2005533253799
 31
0.0
  0
LINE
  5
31D
330
1F
100
AcDbEntity
  8
URIMAT
  6
Continuous
 62
     7
100
AcDbLine
 10
1265.0703943
 20
756.5
 30
0.0
 11
1267.317359690039
 21
751.2005533253799
 31
0.0
  0
LINE
  5
31E
330
1F
100
AcDbEntity
  8
URIMAT
  6
Continuous
 62
     7
100
AcDbLine
 10
1271.6103943
 20
737.0
 30
0.0
 11
1301.6103943
 21
736.5
 31
0.0
  0
LINE
  5
31F
330
1F
100
AcDbEntity
  8
URIMAT
  6
Continuous
 62
     7
100
AcDbLine
 10
1271.6103943
 20
734.4999999999999
 30
0.0
 11
1301.6103943
 21
734.0
 31
0.0
  0
LINE
  5
320
330
1F
100
AcDbEntity
  8
URIMAT
  6
Continuous
 62
     7
100
AcDbLine
 10
1301.610394300001
 20
681.0
 30
0.0
 11
1301.610394300001
 21
736.5
 31
0.0
  0
LINE
  5
321
330
1F
100
AcDbEntity
  8
URIMAT
  6
Continuous
 62
     7
100
AcDbLine
 10
1269.3103943
 20
731.938333333344
 30
0.0
 11
1301.6103943
 21
731.4000000000001
 31
0.0
  0
LINE
  5
324
330
1F
100
AcDbEntity
  8
URIMAT
  6
Continuous
 62
     7
100
AcDbLine
 10
1271.6103943
 20
761.0
 30
0.0
 11
1271.6103943
 21
734.4999999999999
 31
0.0
  0
LINE
  5
325
330
1F
100
AcDbEntity
  8
URIMAT
  6
Continuous
 62
     7
100
AcDbLine
 10
1261.610394300001
 20
761.0
 30
0.0
 11
1271.6103943
 21
761.0
 31
0.0
  0
LINE
  5
326
330
1F
100
AcDbEntity
  8
URIMAT
  6
Continuous
 62
     7
100
AcDbLine
 10
1261.6103943
 20
661.5
 30
0.0
 11
1266.1103943
 21
671.4999999999999
 31
0.0
  0
LINE
  5
327
330
1F
100
AcDbEntity
  8
URIMAT
  6
Continuous
 62
     7
100
AcDbLine
 10
1266.1103943
 20
671.4999999999991
 30
0.0
 11
1269.3103943
 21
671.4999999999991
 31
0.0
  0
LINE
  5
328
330
1F
100
AcDbEntity
  8
URIMAT
  6
Continuous
 62
     7
100
AcDbLine
 10
1265.0703943
 20
661.5
 30
0.0
 11
1271.6103943
 21
661.5
 31
0.0
  0
LINE
  5
329
330
1F
100
AcDbEntity
  8
URIMAT
  6
Continuous
 62
     7
100
AcDbLine
 10
1267.31735969004
 20
666.79944667462
 30
0.0
 11
1271.6103943
 21
666.79944667462
 31
0.0
  0
LINE
  5
32A
330
1F
100
AcDbEntity
  8
URIMAT
  6
Continuous
 62
     7
100
AcDbLine
 10
1265.0703943
 20
661.5
 30
0.0
 11
1267.317359690039
 21
666.79944667462
 31
0.0
  0
LINE
  5
32B
330
1F
100
AcDbEntity
  8
URIMAT
  6
Continuous
 62
     7
100
AcDbLine
 10
1271.6103943
 20
681.0
 30
0.0
 11
1301.6103943
 21
681.5
 31
0.0
  0
LINE
  5
32C
330
1F
100
AcDbEntity
  8
URIMAT
  6
Continuous
 62
     7
100
AcDbLine
 10
1271.6103943
 20
683.4999999999999
 30
0.0
 11
1301.6103943
 21
684.0
 31
0.0
  0
LINE
  5
32D
330
1F
100
AcDbEntity
  8
URIMAT
  6
Continuous
 62
     7
100
AcDbLine
 10
1269.3103943
 20
686.061666666656
 30
0.0
 11
1301.6103943
 21
686.5999999999997
 31
0.0
  0
LINE
  5
32E
330
1F
100
AcDbEntity
  8
URIMAT
  6
Continuous
 62
     7
100
AcDbLine
 10
1271.6103943
 20
657.0
 30
0.0
 11
1271.6103943
 21
683.4999999999999
 31
0.0
  0
LINE
  5
32F
330
1F
100
AcDbEntity
  8
URIMAT
  6
Continuous
 62
     7
100
AcDbLine
 10
1261.610394300001
 20
657.0
 30
0.0
 11
1271.6103943
 21
657.0
 31
0.0
  0
LINE
  5
330
330
1F
100
AcDbEntity
  8
URIMAT
  6
Continuous
 62
     7
100
AcDbLine
 10
1266.110394300001
 20
746.5000000000009
 30
0.0
 11
1266.110394300001
 21
671.4999999999991
 31
0.0
  0
LINE
  5
331
330
1F
100
AcDbEntity
  8
URIMAT
  6
Continuous
 62
     7
100
AcDbLine
 10
1269.3103943
 20
746.5000000000009
 30
0.0
 11
1269.3103943
 21
671.4999999999999
 31
0.0
  0
LINE
  5
332
330
1F
100
AcDbEntity
  8
URIMAT
  6
Continuous
 62
     7
100
AcDbLine
 10
1271.6103943
 20
731.9000000000101
 30
0.0
 11
1271.6103943
 21
686.0999999999899
 31
0.0
  0
LINE
  5
335
330
1F
100
AcDbEntity
  8
URIMAT
  6
Continuous
 62
     7
100
AcDbLine
 10
1201.154846959235
 20
998.8792287120308
 30
0.0
 11
1185.634919590289
 21
861.4332598351639
 31
0.0
  0
LINE
  5
336
330
1F
100
AcDbEntity
  8
URIMAT
  6
Continuous
 62
     7
100
AcDbLine
 10
1213.807984008263
 20
995.0757440866439
 30
0.0
 11
1198.552827787087
 21
859.9746139497206
 31
0.0
  0
LINE
  5
337
330
1F
100
AcDbEntity
  8
URIMAT
  6
Continuous
 62
     7
100
AcDbLine
 10
1249.149822297277
 20
649.0
 30
0.0
 11
1236.146540297726
 21
649.0
 31
0.0
  0
LINE
  5
338
330
1F
100
AcDbEntity
  8
URIMAT
  6
Continuous
 62
     7
100
AcDbLine
 10
1049.1103943
 20
714.044594120086
 30
0.0
 11
1094.110394299999
 21
714.0445941200868
 31
0.0
  0
LINE
  5
339
330
1F
100
AcDbEntity
  8
URIMAT
  6
Continuous
 62
     7
100
AcDbLine
 10
1038.6103943
 20
812.0445941200795
 30
0.0
 11
1040.985394300003
 21
819.0445941200906
 31
0.0
  0
LINE
  5
33A
330
1F
100
AcDbEntity
  8
URIMAT
  6
Continuous
 62
     7
100
AcDbLine
 10
1043.1103943
 20
825.3077520148199
 30
0.0
 11
1048.1103943
 21
840.0445941200796
 31
0.0
  0
LINE
  5
33B
330
1F
100
AcDbEntity
  8
URIMAT
  6
Continuous
 62
     7
100
AcDbLine
 10
1104.610394299998
 20
812.0445941200795
 30
0.0
 11
1102.235394299994
 21
819.0445941200906
 31
0.0
  0
LINE
  5
33C
330
1F
100
AcDbEntity
  8
URIMAT
  6
Continuous
 62
     7
100
AcDbLine
 10
1100.110394299997
 20
825.3077520148199
 30
0.0
 11
1095.110394299998
 21
840.0445941200796
 31
0.0
  0
LINE
  5
33D
330
1F
100
AcDbEntity
  8
URIMAT
  6
Continuous
 62
     7
100
AcDbLine
 10
1128.110394300121
 20
819.0445941200906
 30
0.0
 11
1128.110394300121
 21
816.0445941200896
 31
0.0
  0
LINE
  5
33E
330
1F
100
AcDbEntity
  8
URIMAT
  6
Continuous
 62
     7
100
AcDbLine
 10
1125.110394300121
 20
819.0445941200906
 30
0.0
 11
1125.110394300121
 21
816.0445941200896
 31
0.0
  0
LINE
  5
33F
330
1F
100
AcDbEntity
  8
URIMAT
  6
Continuous
 62
     7
100
AcDbLine
 10
1125.110394300121
 20
816.0445941200896
 30
0.0
 11
1128.110394300121
 21
816.0445941200896
 31
0.0
  0
LINE
  5
340
330
1F
100
AcDbEntity
  8
URIMAT
  6
Continuous
 62
     7
100
AcDbLine
 10
1131.6103943
 20
821.0445941200894
 30
0.0
 11
1131.6103943
 21
819.0445941200906
 31
0.0
  0
LINE
  5
341
330
1F
100
AcDbEntity
  8
URIMAT
  6
Continuous
 62
     7
100
AcDbLine
 10
1011.610394299998
 20
819.0445941200906
 30
0.0
 11
1131.6103943
 21
819.0445941200906
 31
0.0
  0
LINE
  5
342
330
1F
100
AcDbEntity
  8
URIMAT
  6
Continuous
 62
     7
100
AcDbLine
 10
1085.110394300127
 20
816.0445941200896
 30
0.0
 11
1090.110394300049
 21
816.0445941200896
 31
0.0
  0
LINE
  5
343
330
1F
100
AcDbEntity
  8
URIMAT
  6
Continuous
 62
     7
100
AcDbLine
 10
1090.110394300049
 20
819.0445941200906
 30
0.0
 11
1090.110394300049
 21
816.0445941200896
 31
0.0
  0
LINE
  5
344
330
1F
100
AcDbEntity
  8
URIMAT
  6
Continuous
 62
     7
100
AcDbLine
 10
1085.110394300127
 20
819.0445941200906
 30
0.0
 11
1085.110394300127
 21
816.0445941200896
 31
0.0
  0
LINE
  5
345
330
1F
100
AcDbEntity
  8
URIMAT
  6
Continuous
 62
     7
100
AcDbLine
 10
1039.610394300056
 20
819.0445941200906
 30
0.0
 11
1039.610394300056
 21
816.0445941200896
 31
0.0
  0
LINE
  5
346
330
1F
100
AcDbEntity
  8
URIMAT
  6
Continuous
 62
     7
100
AcDbLine
 10
1035.110394300092
 20
816.0445941200896
 30
0.0
 11
1039.610394300056
 21
816.0445941200896
 31
0.0
  0
LINE
  5
347
330
1F
100
AcDbEntity
  8
URIMAT
  6
Continuous
 62
     7
100
AcDbLine
 10
1035.110394300092
 20
819.0445941200906
 30
0.0
 11
1035.110394300092
 21
816.0445941200896
 31
0.0
  0
LINE
  5
348
330
1F
100
AcDbEntity
  8
URIMAT
  6
Continuous
 62
     7
100
AcDbLine
 10
1011.610394299998
 20
821.0445941200907
 30
0.0
 11
1011.610394299998
 21
816.0445941200896
 31
0.0
  0
LINE
  5
349
330
1F
100
AcDbEntity
  8
URIMAT
  6
Continuous
 62
     7
100
AcDbLine
 10
1011.610394299998
 20
821.0445941200907
 30
0.0
 11
1131.6103943
 21
821.0445941200916
 31
0.0
  0
ARC
  5
34A
330
1F
100
AcDbEntity
  8
URIMAT
  6
Continuous
 62
     7
100
AcDbCircle
 10
1071.6103943
 20
496.217839733601
 30
0.0
 40
330.3216922414579
100
AcDbArc
 50
79.53463536374281
 51
100.4653646362572
  0
LINE
  5
34B
330
1F
100
AcDbEntity
  8
URIMAT
  6
Continuous
 62
     7
100
AcDbLine
 10
1011.6103943
 20
816.0445941200896
 30
0.0
 11
1013.610394299999
 21
816.0445941200896
 31
0.0
  0
LINE
  5
34C
330
1F
100
AcDbEntity
  8
URIMAT
  6
Continuous
 62
     7
100
AcDbLine
 10
1013.610394299999
 20
816.0445941200896
 30
0.0
 11
1013.610394299999
 21
819.0445941200906
 31
0.0
  0
LINE
  5
34D
330
1F
100
AcDbEntity
  8
URIMAT
  6
Continuous
 62
     7
100
AcDbLine
 10
1124.960394299999
 20
799.044594120085
 30
0.0
 11
1018.310394299999
 21
799.044594120085
 31
0.0
  0
LINE
  5
34E
330
1F
100
AcDbEntity
  8
URIMAT
  6
Continuous
 62
     7
100
AcDbLine
 10
1077.110394299997
 20
860.0445941200804
 30
0.0
 11
1066.1103943
 21
860.0445941200804
 31
0.0
  0
LINE
  5
34F
330
1F
100
AcDbEntity
  8
URIMAT
  6
Continuous
 62
     7
100
AcDbLine
 10
1095.110394299998
 20
840.0445941200796
 30
0.0
 11
1077.110394299998
 21
860.0445941200796
 31
0.0
  0
LINE
  5
350
330
1F
100
AcDbEntity
  8
URIMAT
  6
Continuous
 62
     7
100
AcDbLine
 10
1125.510394299997
 20
811.0445941200815
 30
0.0
 11
1121.610394299998
 21
811.0445941200815
 31
0.0
  0
LINE
  5
351
330
1F
100
AcDbEntity
  8
URIMAT
  6
Continuous
 62
     7
100
AcDbLine
 10
1121.610394299999
 20
807.0445941200796
 30
0.0
 11
1121.610394299999
 21
804.0445941200824
 31
0.0
  0
LINE
  5
352
330
1F
100
AcDbEntity
  8
URIMAT
  6
Continuous
 62
     7
100
AcDbLine
 10
1121.610394299998
 20
811.0445941200815
 30
0.0
 11
1121.610394299999
 21
808.0445941200823
 31
0.0
  0
LINE
  5
353
330
1F
100
AcDbEntity
  8
URIMAT
  6
Continuous
 62
     7
100
AcDbLine
 10
1125.360394299998
 20
808.0445941200823
 30
0.0
 11
1121.610394299999
 21
808.0445941200823
 31
0.0
  0
LINE
  5
354
330
1F
100
AcDbEntity
  8
URIMAT
  6
Continuous
 62
     7
100
AcDbLine
 10
1125.310394299999
 20
807.0445941200796
 30
0.0
 11
1121.610394299999
 21
807.0445941200796
 31
0.0
  0
LINE
  5
355
330
1F
100
AcDbEntity
  8
URIMAT
  6
Continuous
 62
     7
100
AcDbLine
 10
1125.160394299998
 20
804.0445941200824
 30
0.0
 11
1121.610394299999
 21
804.0445941200824
 31
0.0
  0
LINE
  5
356
330
1F
100
AcDbEntity
  8
URIMAT
  6
Continuous
 62
     7
100
AcDbLine
 10
1121.610394299999
 20
803.0445941200824
 30
0.0
 11
1121.610394299999
 21
800.0445941200805
 31
0.0
  0
LINE
  5
357
330
1F
100
AcDbEntity
  8
URIMAT
  6
Continuous
 62
     7
100
AcDbLine
 10
1125.110394299998
 20
803.0445941200824
 30
0.0
 11
1121.610394299999
 21
803.0445941200824
 31
0.0
  0
LINE
  5
358
330
1F
100
AcDbEntity
  8
URIMAT
  6
Continuous
 62
     7
100
AcDbLine
 10
1124.960394299998
 20
800.0445941200805
 30
0.0
 11
1121.610394299999
 21
800.0445941200805
 31
0.0
  0
LINE
  5
359
330
1F
100
AcDbEntity
  8
URIMAT
  6
Continuous
 62
     7
100
AcDbLine
 10
1124.960394299998
 20
800.0445941200796
 30
0.0
 11
1124.910394299998
 21
799.0445941200906
 31
0.0
  0
LINE
  5
35A
330
1F
100
AcDbEntity
  8
URIMAT
  6
Continuous
 62
     7
100
AcDbLine
 10
1125.160394299998
 20
804.0445941200797
 30
0.0
 11
1125.110394299998
 21
803.0445941200795
 31
0.0
  0
LINE
  5
35B
330
1F
100
AcDbEntity
  8
URIMAT
  6
Continuous
 62
     7
100
AcDbLine
 10
1125.360394299998
 20
808.0445941200796
 30
0.0
 11
1125.310394299999
 21
807.0445941200796
 31
0.0
  0
LINE
  5
35C
330
1F
100
AcDbEntity
  8
URIMAT
  6
Continuous
 62
     7
100
AcDbLine
 10
1125.560394299999
 20
812.0445941200795
 30
0.0
 11
1125.510394299997
 21
811.0445941200795
 31
0.0
  0
LINE
  5
35D
330
1F
100
AcDbEntity
  8
URIMAT
  6
Continuous
 62
     7
100
AcDbLine
 10
1094.110394299999
 20
714.0445941200868
 30
0.0
 11
1094.110394299998
 21
799.044594120085
 31
0.0
  0
LINE
  5
35E
330
1F
100
AcDbEntity
  8
URIMAT
  6
Continuous
 62
     7
100
AcDbLine
 10
1048.1103943
 20
840.0445941200796
 30
0.0
 11
1066.1103943
 21
860.0445941200796
 31
0.0
  0
LINE
  5
35F
330
1F
100
AcDbEntity
  8
URIMAT
  6
Continuous
 62
     7
100
AcDbLine
 10
1017.710394299999
 20
811.0445941200804
 30
0.0
 11
1021.610394299999
 21
811.0445941200804
 31
0.0
  0
LINE
  5
360
330
1F
100
AcDbEntity
  8
URIMAT
  6
Continuous
 62
     7
100
AcDbLine
 10
1021.610394299999
 20
807.0445941200796
 30
0.0
 11
1021.610394299999
 21
804.0445941200824
 31
0.0
  0
LINE
  5
361
330
1F
100
AcDbEntity
  8
URIMAT
  6
Continuous
 62
     7
100
AcDbLine
 10
1021.610394299999
 20
811.0445941200804
 30
0.0
 11
1021.610394299999
 21
808.0445941200814
 31
0.0
  0
LINE
  5
362
330
1F
100
AcDbEntity
  8
URIMAT
  6
Continuous
 62
     7
100
AcDbLine
 10
1017.8603943
 20
808.0445941200814
 30
0.0
 11
1021.610394299999
 21
808.0445941200814
 31
0.0
  0
LINE
  5
363
330
1F
100
AcDbEntity
  8
URIMAT
  6
Continuous
 62
     7
100
AcDbLine
 10
1017.910394299999
 20
807.0445941200796
 30
0.0
 11
1021.610394299999
 21
807.0445941200796
 31
0.0
  0
LINE
  5
364
330
1F
100
AcDbEntity
  8
URIMAT
  6
Continuous
 62
     7
100
AcDbLine
 10
1018.060394299999
 20
804.0445941200824
 30
0.0
 11
1021.610394299999
 21
804.0445941200824
 31
0.0
  0
LINE
  5
365
330
1F
100
AcDbEntity
  8
URIMAT
  6
Continuous
 62
     7
100
AcDbLine
 10
1021.610394299999
 20
803.0445941200815
 30
0.0
 11
1021.610394299999
 21
800.0445941200805
 31
0.0
  0
LINE
  5
366
330
1F
100
AcDbEntity
  8
URIMAT
  6
Continuous
 62
     7
100
AcDbLine
 10
1018.1103943
 20
803.0445941200815
 30
0.0
 11
1021.610394299999
 21
803.0445941200815
 31
0.0
  0
LINE
  5
367
330
1F
100
AcDbEntity
  8
URIMAT
  6
Continuous
 62
     7
100
AcDbLine
 10
1018.260394299999
 20
800.0445941200805
 30
0.0
 11
1021.610394299999
 21
800.0445941200805
 31
0.0
  0
LINE
  5
368
330
1F
100
AcDbEntity
  8
URIMAT
  6
Continuous
 62
     7
100
AcDbLine
 10
1018.260394299999
 20
800.0445941200796
 30
0.0
 11
1018.310394299999
 21
799.0445941200895
 31
0.0
  0
LINE
  5
369
330
1F
100
AcDbEntity
  8
URIMAT
  6
Continuous
 62
     7
100
AcDbLine
 10
1018.060394299999
 20
804.0445941200797
 30
0.0
 11
1018.1103943
 21
803.0445941200795
 31
0.0
  0
LINE
  5
36A
330
1F
100
AcDbEntity
  8
URIMAT
  6
Continuous
 62
     7
100
AcDbLine
 10
1017.8603943
 20
808.0445941200796
 30
0.0
 11
1017.910394299999
 21
807.0445941200796
 31
0.0
  0
LINE
  5
36B
330
1F
100
AcDbEntity
  8
URIMAT
  6
Continuous
 62
     7
100
AcDbLine
 10
1017.660394299999
 20
812.0445941200795
 30
0.0
 11
1017.710394299999
 21
811.0445941200795
 31
0.0
  0
LINE
  5
36C
330
1F
100
AcDbEntity
  8
URIMAT
  6
Continuous
 62
     7
100
AcDbLine
 10
1017.639999999999
 20
812.0445941200815
 30
0.0
 11
1125.439999999998
 21
812.0445941200815
 31
0.0
  0
LINE
  5
36D
330
1F
100
AcDbEntity
  8
URIMAT
  6
Continuous
 62
     7
100
AcDbLine
 10
1049.1103943
 20
714.044594120086
 30
0.0
 11
1049.1103943
 21
799.044594120085
 31
0.0
  0
LINE
  5
36E
330
1F
100
AcDbEntity
  8
URIMAT
  6
Continuous
 62
     7
100
AcDbLine
 10
1127.347877328344
 20
782.0445941200987
 30
0.0
 11
1134.122886497249
 21
782.0445941200987
 31
0.0
  0
LINE
  5
36F
330
1F
100
AcDbEntity
  8
URIMAT
  6
Continuous
 62
     7
100
AcDbLine
 10
1125.610394299999
 20
812.0445941200996
 30
0.0
 11
1124.610394299999
 21
792.0445941200996
 31
0.0
  0
LINE
  5
370
330
1F
100
AcDbEntity
  8
URIMAT
  6
Continuous
 62
     7
100
AcDbLine
 10
1007.6103943
 20
817.0445941200997
 30
0.0
 11
1017.6103943
 21
812.0445941200996
 31
0.0
  0
LINE
  5
371
330
1F
100
AcDbEntity
  8
URIMAT
  6
Continuous
 62
     7
100
AcDbLine
 10
1135.6103943
 20
817.0445941201107
 30
0.0
 11
1125.6103943
 21
812.0445941200996
 31
0.0
  0
LINE
  5
372
330
1F
100
AcDbEntity
  8
URIMAT
  6
Continuous
 62
     7
100
AcDbLine
 10
1125.610394299993
 20
812.044594120096
 30
0.0
 11
1017.610394300009
 21
812.044594120096
 31
0.0
  0
LINE
  5
373
330
1F
100
AcDbEntity
  8
URIMAT
  6
Continuous
 62
     7
100
AcDbLine
 10
1017.6103943
 20
812.0445941200996
 30
0.0
 11
1018.6103943
 21
792.0445941200996
 31
0.0
  0
LINE
  5
374
330
1F
100
AcDbEntity
  8
URIMAT
  6
Continuous
 62
     7
100
AcDbLine
 10
1007.610394300011
 20
817.0445941200959
 30
0.0
 11
1011.610394299998
 21
817.0445941200959
 31
0.0
  0
LINE
  5
375
330
1F
100
AcDbEntity
  8
URIMAT
  6
Continuous
 62
     7
100
AcDbLine
 10
1013.610394299998
 20
817.0445941200959
 30
0.0
 11
1035.110394300092
 21
817.0445941200959
 31
0.0
  0
LINE
  5
376
330
1F
100
AcDbEntity
  8
URIMAT
  6
Continuous
 62
     7
100
AcDbLine
 10
1039.610394300056
 20
817.0445941200959
 30
0.0
 11
1040.306822871434
 21
817.0445941200959
 31
0.0
  0
LINE
  5
377
330
1F
100
AcDbEntity
  8
URIMAT
  6
Continuous
 62
     7
100
AcDbLine
 10
1102.913965728564
 20
817.0445941200959
 30
0.0
 11
1125.110394300121
 21
817.0445941200959
 31
0.0
  0
LINE
  5
378
330
1F
100
AcDbEntity
  8
URIMAT
  6
Continuous
 62
     7
100
AcDbLine
 10
1128.110394300121
 20
817.0445941200959
 30
0.0
 11
1135.610394299999
 21
817.0445941200959
 31
0.0
  0
LINE
  5
379
330
1F
100
AcDbEntity
  8
URIMAT
  6
Continuous
 62
     7
100
AcDbLine
 10
1124.610394299999
 20
792.0445941200978
 30
0.0
 11
1094.110394299997
 21
792.0445941200974
 31
0.0
  0
LINE
  5
37A
330
1F
100
AcDbEntity
  8
URIMAT
  6
Continuous
 62
     7
100
AcDbLine
 10
1049.110394299998
 20
792.0445941200965
 30
0.0
 11
1018.6103943
 21
792.044594120096
 31
0.0
  0
LINE
  5
37B
330
1F
100
AcDbEntity
  8
URIMAT
  6
Continuous
 62
     7
100
AcDbLine
 10
1004.841642483862
 20
807.2486301406692
 30
0.0
 11
1007.91452229705
 21
805.7121902340753
 31
0.0
  0
ARC
  5
37C
330
1F
100
AcDbEntity
  8
URIMAT
  6
Continuous
 62
     7
100
AcDbCircle
 10
983.6999917450848
 20
772.0445941200962
 30
0.0
 40
10.0
100
AcDbArc
 50
90.00000000000198
 51
172.6060086367835
  0
ARC
  5
37D
330
1F
100
AcDbEntity
  8
URIMAT
  6
Continuous
 62
     7
100
AcDbCircle
 10
1005.03619087447
 20
772.0445941200969
 30
0.0
 40
10.0
100
AcDbArc
 50
14.53829691355207
 51
90.00000000000198
  0
ARC
  5
37E
330
1F
100
AcDbEntity
  8
URIMAT
  6
Continuous
 62
     7
100
AcDbCircle
 10
983.6999917450848
 20
772.0445941200962
 30
0.0
 40
20.0
100
AcDbArc
 50
90.00000000000198
 51
172.6060086367835
  0
LINE
  5
37F
330
1F
100
AcDbEntity
  8
URIMAT
  6
Continuous
 62
     7
100
AcDbLine
 10
1007.91452229705
 20
805.7121902340753
 30
0.0
 11
1008.614033408766
 21
791.7219679997532
 31
0.0
  0
ARC
  5
380
330
1F
100
AcDbEntity
  8
URIMAT
  6
Continuous
 62
     7
100
AcDbCircle
 10
1005.03619087447
 20
772.0445941200969
 30
0.0
 40
20.0
100
AcDbArc
 50
79.69476402454813
 51
90.00000000000198
  0
LINE
  5
381
330
1F
100
AcDbEntity
  8
URIMAT
  6
Continuous
 62
     7
100
AcDbLine
 10
1006.56
 20
792.044594120097
 30
0.0
 11
983.6999917450842
 21
792.0445941200962
 31
0.0
  0
LINE
  5
382
330
1F
100
AcDbEntity
  8
URIMAT
  6
Continuous
 62
     7
100
AcDbLine
 10
1005.03619087447
 20
782.0445941200969
 30
0.0
 11
983.6999917450844
 21
782.0445941200962
 31
0.0
  0
LINE
  5
384
330
1F
100
AcDbEntity
  8
URIMAT
  6
Continuous
 62
     7
100
AcDbLine
 10
1261.610394300001
 20
744.2343116085502
 30
0.0
 11
1261.610394300001
 21
744.0354132325787
 31
0.0
  0
LINE
  5
385
330
1F
100
AcDbEntity
  8
URIMAT
  6
Continuous
 62
     7
100
AcDbLine
 10
1255.1103943
 20
733.9999999999892
 30
0.0
 11
1245.110394299999
 21
733.9999999999892
 31
0.0
  0
LINE
  5
386
330
1F
100
AcDbEntity
  8
URIMAT
  6
Continuous
 62
     7
100
AcDbLine
 10
1255.1103943
 20
683.99999999999
 30
0.0
 11
1255.1103943
 21
733.9999999999892
 31
0.0
  0
ARC
  5
387
330
1F
100
AcDbEntity
  8
URIMAT
  6
Continuous
 62
     7
100
AcDbCircle
 10
1253.717726536581
 20
668.2844340355373
 30
0.0
 40
5.0
100
AcDbArc
 50
93.54594254893958
 51
181.2873289415245
  0
LINE
  5
388
330
1F
100
AcDbEntity
  8
URIMAT
  6
Continuous
 62
     7
100
AcDbLine
 10
1248.718988525495
 20
668.172102844277
 30
0.0
 11
1249.3745413984
 21
638.9999999999908
 31
0.0
  0
LINE
  5
389
330
1F
100
AcDbEntity
  8
URIMAT
  6
Continuous
 62
     7
100
AcDbLine
 10
1255.1103943
 20
683.99999999999
 30
0.0
 11
1236.642267190818
 21
683.99999999999
 31
0.0
  0
ARC
  5
38A
330
1F
100
AcDbEntity
  8
URIMAT
  6
Continuous
 62
     7
100
AcDbCircle
 10
1230.716826291372
 20
668.0661005981745
 30
0.0
 40
17.0
100
AcDbArc
 50
69.60102088090273
 51
87.66980804616146
  0
ARC
  5
38B
330
1F
100
AcDbEntity
  8
URIMAT
  6
Continuous
 62
     7
100
AcDbCircle
 10
1135.950657294916
 20
867.0434363176379
 30
0.0
 40
50.0
100
AcDbArc
 50
269.6100843196971
 51
353.5576449579224
  0
ARC
  5
38C
330
1F
100
AcDbEntity
  8
URIMAT
  6
Continuous
 62
     7
100
AcDbCircle
 10
1198.708621213681
 20
829.754859450575
 30
0.0
 40
10.0
100
AcDbArc
 50
149.2827064832986
 51
254.2065164853124
  0
ARC
  5
38D
330
1F
100
AcDbEntity
  8
URIMAT
  6
Continuous
 62
     7
100
AcDbCircle
 10
1135.950657294916
 20
867.0434363176379
 30
0.0
 40
63.0
100
AcDbArc
 50
329.2827064832987
 51
353.5576449579224
  0
LINE
  5
38E
330
1F
100
AcDbEntity
  8
URIMAT
  6
Continuous
 62
     7
100
AcDbLine
 10
1134.122886497249
 20
782.0445941200987
 30
0.0
 11
1135.306266302948
 21
805.7121902340808
 31
0.0
  0
LINE
  5
38F
330
1F
100
AcDbEntity
  8
URIMAT
  6
Continuous
 62
     7
100
AcDbLine
 10
1138.041651559474
 20
807.0798828623464
 30
0.0
 11
1135.306266302948
 21
805.7121902340808
 31
0.0
  0
ARC
  5
390
330
1F
100
AcDbEntity
  8
URIMAT
  6
Continuous
 62
     7
100
AcDbCircle
 10
1135.950657294916
 20
867.0434363176379
 30
0.0
 40
60.0
100
AcDbArc
 50
271.9971568413888
 51
316.0955678481345
  0
ARC
  5
391
330
1F
100
AcDbEntity
  8
URIMAT
  6
Continuous
 62
     7
100
AcDbCircle
 10
1198.708621213681
 20
829.754859450575
 30
0.0
 40
20.0
100
AcDbArc
 50
192.4709068692493
 51
254.2065164853124
  0
LINE
  5
392
330
1F
100
AcDbEntity
  8
URIMAT
  6
Continuous
 62
     7
100
AcDbLine
 10
1106.6103943
 20
762.0445941200943
 30
0.0
 11
1106.6103943
 21
752.0445941200943
 31
0.0
  0
LINE
  5
393
330
1F
100
AcDbEntity
  8
URIMAT
  6
Continuous
 62
     7
100
AcDbLine
 10
1036.6103943
 20
762.0445941200935
 30
0.0
 11
1036.6103943
 21
752.0445941200932
 31
0.0
  0
LINE
  5
394
330
1F
100
AcDbEntity
  8
URIMAT
  6
Continuous
 62
     7
100
AcDbLine
 10
1030.884389735412
 20
752.0445941200932
 30
0.0
 11
1049.1103943
 21
752.0445941200933
 31
0.0
  0
ARC
  5
395
330
1F
100
AcDbEntity
  8
URIMAT
  6
Continuous
 62
     7
100
AcDbCircle
 10
1054.122118498939
 20
702.2744297839038
 30
0.0
 40
10.0
100
AcDbArc
 50
194.5382969135523
 51
267.6698080461615
  0
LINE
  5
396
330
1F
100
AcDbEntity
  8
URIMAT
  6
Continuous
 62
     7
100
AcDbLine
 10
1030.884389735412
 20
752.0445941200932
 30
0.0
 11
1044.442317815783
 21
699.7641591342779
 31
0.0
  0
LINE
  5
397
330
1F
100
AcDbEntity
  8
URIMAT
  6
Continuous
 62
     7
100
AcDbLine
 10
1046.304282513593
 20
692.5842770938457
 30
0.0
 11
1046.316640829259
 21
692.536622458501
 31
0.0
  0
LINE
  5
398
330
1F
100
AcDbEntity
  8
URIMAT
  6
Continuous
 62
     7
100
AcDbLine
 10
1053.715535384682
 20
692.2826986940876
 30
0.0
 11
1231.40801758561
 21
685.0520434508622
 31
0.0
  0
LINE
  5
399
330
1F
100
AcDbEntity
  8
URIMAT
  6
Continuous
 62
     7
100
AcDbLine
 10
931.6103942999999
 20
640.9999999999899
 30
0.0
 11
931.6103942999998
 21
650.9999999999892
 31
0.0
  0
LINE
  5
39A
330
1F
100
AcDbEntity
  8
URIMAT
  6
Continuous
 62
     7
100
AcDbLine
 10
947.8242505489399
 20
650.99999999999
 30
0.0
 11
947.8242505489399
 21
640.9999999999899
 31
0.0
  0
ARC
  5
39B
330
1F
100
AcDbEntity
  8
URIMAT
  6
Continuous
 62
     7
100
AcDbCircle
 10
1240.149001531378
 20
769.5447490934691
 30
0.0
 40
10.0
100
AcDbArc
 50
1.072829275773396
 51
56.64179642335014
  0
ARC
  5
39C
330
1F
100
AcDbEntity
  8
URIMAT
  6
Continuous
 62
     7
100
AcDbCircle
 10
1224.544916427217
 20
801.6624565291527
 30
0.0
 40
10.0
100
AcDbArc
 50
1.072829275773282
 51
74.20651648531166
  0
ARC
  5
39D
330
1F
100
AcDbEntity
  8
URIMAT
  6
Continuous
 62
     7
100
AcDbCircle
 10
1244.758295736675
 20
790.4552509065617
 30
0.0
 40
10.0
100
AcDbArc
 50
181.072829275774
 51
236.641796423352
  0
LINE
  5
39E
330
1F
100
AcDbEntity
  8
URIMAT
  6
Continuous
 62
     7
100
AcDbLine
 10
1195.986913131093
 20
820.1323699019615
 30
0.0
 11
1227.266624509806
 21
811.2849460777662
 31
0.0
  0
LINE
  5
39F
330
1F
100
AcDbEntity
  8
URIMAT
  6
Continuous
 62
     7
100
AcDbLine
 10
1234.543163462063
 20
801.8496896196898
 30
0.0
 11
1234.760048701829
 21
790.2680178160246
 31
0.0
  0
LINE
  5
3A0
330
1F
100
AcDbEntity
  8
URIMAT
  6
Continuous
 62
     7
100
AcDbLine
 10
1239.259579891603
 20
782.1027588200551
 30
0.0
 11
1245.64771737645
 21
777.8972411799757
 31
0.0
  0
ARC
  5
3A1
330
1F
100
AcDbEntity
  8
URIMAT
  6
Continuous
 62
     7
100
AcDbCircle
 10
1255.523761130699
 20
749.6730236164067
 30
0.0
 40
5.0
100
AcDbArc
 50
181.0728292757755
 51
266.0548137709639
  0
ARC
  5
3A2
330
1F
100
AcDbEntity
  8
URIMAT
  6
Continuous
 62
     7
100
AcDbCircle
 10
1262.1103943
 20
741.1997706509386
 30
0.0
 40
3.0
100
AcDbArc
 50
0.0
 51
86.05481377096159
  0
ARC
  5
3A3
330
1F
100
AcDbEntity
  8
URIMAT
  6
Continuous
 62
     7
100
AcDbCircle
 10
1262.1103943
 20
738.4594117081458
 30
0.0
 40
3.0
100
AcDbArc
 50
281.3099324740198
 51
0.0
  0
ARC
  5
3A4
330
1F
100
AcDbEntity
  8
URIMAT
  6
Continuous
 62
     7
100
AcDbCircle
 10
1262.1103943
 20
679.5405882918542
 30
0.0
 40
3.0
100
AcDbArc
 50
0.0
 51
78.69006752598021
  0
LINE
  5
3A5
330
1F
100
AcDbEntity
  8
URIMAT
  6
Continuous
 62
     7
100
AcDbLine
 10
1261.610394300001
 20
760.9999999999996
 30
0.0
 11
1261.610394300001
 21
744.2413793103347
 31
0.0
  0
LINE
  5
3A6
330
1F
100
AcDbEntity
  8
URIMAT
  6
Continuous
 62
     7
100
AcDbLine
 10
1250.524637613276
 20
749.5794070711383
 30
0.0
 11
1250.147248566225
 21
769.7319821840062
 31
0.0
  0
LINE
  5
3A7
330
1F
100
AcDbEntity
  8
URIMAT
  6
Continuous
 62
     7
100
AcDbLine
 10
1255.179750672622
 20
744.6848719742917
 30
0.0
 11
1262.316800574846
 21
744.1926616362073
 31
0.0
  0
LINE
  5
3A8
330
1F
100
AcDbEntity
  8
URIMAT
  6
Continuous
 62
     7
100
AcDbLine
 10
1255.1103943
 20
733.9999999999901
 30
0.0
 11
1262.698742705414
 21
735.5176696810728
 31
0.0
  0
LINE
  5
3A9
330
1F
100
AcDbEntity
  8
URIMAT
  6
Continuous
 62
     7
100
AcDbLine
 10
1261.610394300001
 20
673.7831137214588
 30
0.0
 11
1261.610394300001
 21
656.9999999999992
 31
0.0
  0
LINE
  5
3AA
330
1F
100
AcDbEntity
  8
URIMAT
  6
Continuous
 62
     7
100
AcDbLine
 10
1253.408482171784
 20
673.2748616647931
 30
0.0
 11
1262.636311778409
 21
673.8466872711651
 31
0.0
  0
ARC
  5
3AB
330
1F
100
AcDbEntity
  8
URIMAT
  6
Continuous
 62
     7
100
AcDbCircle
 10
1262.1103943
 20
676.8002293490614
 30
0.0
 40
3.0
100
AcDbArc
 50
280.0964557847267
 51
0.0
  0
LINE
  5
3AC
330
1F
100
AcDbEntity
  8
URIMAT
  6
Continuous
 62
     7
100
AcDbLine
 10
1265.1103943
 20
676.8002293490614
 30
0.0
 11
1265.1103943
 21
741.1997706509386
 31
0.0
  0
LINE
  5
3AD
330
1F
100
AcDbEntity
  8
URIMAT
  6
Continuous
 62
     7
100
AcDbLine
 10
1262.69874270541
 20
682.4823303189078
 30
0.0
 11
1255.1103943
 21
683.99999999999
 31
0.0
  0
ARC
  5
3AE
330
1F
100
AcDbEntity
  8
URIMAT
  6
Continuous
 62
     7
100
AcDbCircle
 10
1244.758295736675
 20
790.4552509065617
 30
0.0
 40
20.0
100
AcDbArc
 50
181.072829275774
 51
236.641796423352
  0
LINE
  5
3AF
330
1F
100
AcDbEntity
  8
URIMAT
  6
Continuous
 62
     7
100
AcDbLine
 10
1233.760864046531
 20
773.7502667335484
 30
0.0
 11
1240.149001531378
 21
769.5447490934691
 31
0.0
  0
LINE
  5
3B0
330
1F
100
AcDbEntity
  8
URIMAT
  6
Continuous
 62
     7
100
AcDbLine
 10
1224.544916427217
 20
801.6624565291527
 30
0.0
 11
1224.761801666983
 21
790.0807847254875
 31
0.0
  0
LINE
  5
3B1
330
1F
100
AcDbEntity
  8
URIMAT
  6
Continuous
 62
     7
100
AcDbLine
 10
1224.544916427217
 20
801.6624565291508
 30
0.0
 11
1193.265205048504
 21
810.5098803533463
 31
0.0
  0
LINE
  5
3B2
330
1F
100
AcDbEntity
  8
URIMAT
  6
Continuous
 62
     7
100
AcDbLine
 10
1245.110394299999
 20
683.99999999999
 30
0.0
 11
1245.110394299999
 21
738.8766449990521
 31
0.0
  0
ARC
  5
3B3
330
1F
100
AcDbEntity
  8
URIMAT
  6
Continuous
 62
     7
100
AcDbCircle
 10
1255.523761130699
 20
749.6730236164067
 30
0.0
 40
15.0
100
AcDbArc
 50
181.0728292757756
 51
226.0345514974853
  0
LINE
  5
3B4
330
1F
100
AcDbEntity
  8
URIMAT
  6
Continuous
 62
     7
100
AcDbLine
 10
1240.52639057843
 20
749.3921739806012
 30
0.0
 11
1240.149001531378
 21
769.5447490934691
 31
0.0
  0
ARC
  5
3B5
330
1F
100
AcDbEntity
  8
URIMAT
  6
Continuous
 62
     7
100
AcDbCircle
 10
1230.671804107292
 20
670.0695877897206
 30
0.0
 40
5.0
100
AcDbArc
 50
1.287328941525069
 51
87.66980804615887
  0
ARC
  5
3B6
330
1F
100
AcDbEntity
  8
URIMAT
  6
Continuous
 62
     7
100
AcDbCircle
 10
1046.304282513595
 20
692.584277093846
 30
0.0
 40
10.0
100
AcDbArc
 50
194.5382969135528
 51
267.6698080461613
  0
LINE
  5
3B7
330
1F
100
AcDbEntity
  8
URIMAT
  6
Continuous
 62
     7
100
AcDbLine
 10
1014.715991557626
 20
774.5548647697225
 30
0.0
 11
1036.624481830439
 21
690.0740064442202
 31
0.0
  0
LINE
  5
3B8
330
1F
100
AcDbEntity
  8
URIMAT
  6
Continuous
 62
     7
100
AcDbLine
 10
1045.911973240388
 20
682.5919651734714
 30
0.0
 11
1230.875095664421
 21
675.0654533346287
 31
0.0
  0
LINE
  5
3B9
330
1F
100
AcDbEntity
  8
URIMAT
  6
Continuous
 62
     7
100
AcDbLine
 10
1235.670542118378
 20
670.1819189809809
 30
0.0
 11
1236.371259398849
 21
638.9999999999908
 31
0.0
  0
ARC
  5
3BA
330
1F
100
AcDbEntity
  8
URIMAT
  6
Continuous
 62
     7
100
AcDbCircle
 10
1035.259060417357
 20
767.0445941200934
 30
0.0
 40
5.0
100
AcDbArc
 50
194.5382969135527
 51
270.0
  0
LINE
  5
3BB
330
1F
100
AcDbEntity
  8
URIMAT
  6
Continuous
 62
     7
100
AcDbLine
 10
1023.6103943
 20
792.0445941200996
 30
0.0
 11
1030.419160075779
 21
765.7894587952805
 31
0.0
  0
LINE
  5
3BC
330
1F
100
AcDbEntity
  8
URIMAT
  6
Continuous
 62
     7
100
AcDbLine
 10
1049.110394299999
 20
762.0445941200937
 30
0.0
 11
1035.259060417357
 21
762.0445941200934
 31
0.0
  0
ARC
  5
3BD
330
1F
100
AcDbEntity
  8
URIMAT
  6
Continuous
 62
     7
100
AcDbCircle
 10
1107.96172818264
 20
767.0445941200946
 30
0.0
 40
5.0
100
AcDbArc
 50
270.0
 51
345.4617030864473
  0
ARC
  5
3BE
330
1F
100
AcDbEntity
  8
URIMAT
  6
Continuous
 62
     7
100
AcDbCircle
 10
1107.961728182636
 20
767.0445941200942
 30
0.0
 40
15.0
100
AcDbArc
 50
270.0000000000009
 51
345.4617030864473
  0
LINE
  5
3BF
330
1F
100
AcDbEntity
  8
URIMAT
  6
Continuous
 62
     7
100
AcDbLine
 10
1094.110394299999
 20
752.0445941200943
 30
0.0
 11
1107.961728182636
 21
752.0445941200943
 31
0.0
  0
LINE
  5
3C0
330
1F
100
AcDbEntity
  8
URIMAT
  6
Continuous
 62
     7
100
AcDbLine
 10
1127.347877328342
 20
782.0445941200888
 30
0.0
 11
1122.48142920737
 21
763.2791881456557
 31
0.0
  0
LINE
  5
3C1
330
1F
100
AcDbEntity
  8
URIMAT
  6
Continuous
 62
     7
100
AcDbLine
 10
1107.96172818264
 20
762.0445941200946
 30
0.0
 11
1094.110394299998
 21
762.0445941200943
 31
0.0
  0
LINE
  5
3C2
330
1F
100
AcDbEntity
  8
URIMAT
  6
Continuous
 62
     7
100
AcDbLine
 10
1119.610394299998
 20
792.0445941200996
 30
0.0
 11
1112.801628524218
 21
765.7894587952816
 31
0.0
  0
CIRCLE
  5
4BC
330
1F
100
AcDbEntity
  8
0
  6
Continuous
100
AcDbCircle
 10
480.0000000000001
 20
509.0
 30
0.0
 40
2.0
  0
CIRCLE
  5
4C4
330
1F
100
AcDbEntity
  8
0
  6
Continuous
100
AcDbCircle
 10
1271.6103943
 20
509.0
 30
0.0
 40
2.0
  0
LINE
  5
4CD
330
1F
100
AcDbEntity
  8
0
  6
Continuous
100
AcDbLine
 10
487.0710679999994
 20
2123.871067499999
 30
0.0
 11
472.9289319999995
 21
2109.728932499999
 31
0.0
  0
LINE
  5
4CE
330
1F
100
AcDbEntity
  8
0
  6
Continuous
100
AcDbLine
 10
472.9289319999995
 20
2123.871067499999
 30
0.0
 11
487.0710679999994
 21
2109.728932499999
 31
0.0
  0
LINE
  5
4D7
330
1F
100
AcDbEntity
  8
0
  6
Continuous
100
AcDbLine
 10
487.0710680000001
 20
716.0710675
 30
0.0
 11
472.9289320000002
 21
701.9289324999999
 31
0.0
  0
LINE
  5
4D8
330
1F
100
AcDbEntity
  8
0
  6
Continuous
100
AcDbLine
 10
472.9289320000002
 20
716.0710675
 30
0.0
 11
487.0710680000001
 21
701.9289324999999
 31
0.0
  0
LINE
  5
4E1
330
1F
100
AcDbEntity
  8
0
  6
Continuous
100
AcDbLine
 10
1278.681462300011
 20
716.0710675000109
 30
0.0
 11
1264.539326300011
 21
701.9289325000109
 31
0.0
  0
LINE
  5
4E2
330
1F
100
AcDbEntity
  8
0
  6
Continuous
100
AcDbLine
 10
1264.539326300011
 20
716.0710675000109
 30
0.0
 11
1278.681462300011
 21
701.9289325000109
 31
0.0
  0
CIRCLE
  5
4F3
330
1F
100
AcDbEntity
  8
URIMAT
  6
EXLTYPE2
 62
     7
100
AcDbCircle
 10
480.0
 20
709.0
 30
0.0
 40
22.9
  0
CIRCLE
  5
4F4
330
1F
100
AcDbEntity
  8
URIMAT
  6
EXLTYPE2
 62
     7
100
AcDbCircle
 10
480.0
 20
709.0
 30
0.0
 40
36.9
  0
CIRCLE
  5
4F5
330
1F
100
AcDbEntity
  8
URIMAT
  6
EXLTYPE2
 62
     7
100
AcDbCircle
 10
480.0
 20
709.0
 30
0.0
 40
47.0
  0
ENDSEC
  0
SECTION
  2
OBJECTS
  0
DICTIONARY
  5
C
330
0
100
AcDbDictionary
281
     1
  3
ACAD_CIP_PREVIOUS_PRODUCT_INFO
350
4AD
  3
ACAD_COLOR
350
490
  3
ACAD_DETAILVIEWSTYLE
350
4A8
  3
ACAD_GROUP
350
D
  3
ACAD_LAST_SAVED_VERSION_INFO
350
4FF
  3
ACAD_LAYOUT
350
1A
  3
ACAD_MATERIAL
350
3B
  3
ACAD_MLEADERSTYLE
350
475
  3
ACAD_MLINESTYLE
350
17
  3
ACAD_PLOTSETTINGS
350
19
  3
ACAD_PLOTSTYLENAME
350
484
  3
ACAD_SCALELIST
350
493
  3
ACAD_SECTIONVIEWSTYLE
350
4A6
  3
ACAD_TABLESTYLE
350
491
  3
ACAD_VISUALSTYLE
350
2A
  3
ACDB_RECOMPOSE_DATA
350
512
  3
ACDBVARIABLEDICTIONARY
350
473
  0
DICTIONARY
  5
4B3
330
2
100
AcDbDictionary
280
     1
281
     1
  3
ACAD_LAYERSTATES
360
4B4
  0
DICTIONARY
  5
500
330
10
100
AcDbDictionary
280
     1
281
     1
  3
ADSK_XREC_LAYER_RECONCILED
360
501
  0
DICTIONARY
  5
502
330
4A
100
AcDbDictionary
280
     1
281
     1
  3
ADSK_XREC_LAYER_RECONCILED
360
503
  0
DICTIONARY
  5
504
330
4C
100
AcDbDictionary
280
     1
281
     1
  3
ADSK_XREC_LAYER_RECONCILED
360
505
  0
DICTIONARY
  5
4B1
330
4B0
100
AcDbDictionary
280
     1
281
     1
  3
ADSK_XREC_LAYER_RECONCILED
360
506
  0
XRECORD
  5
4AD
102
{ACAD_REACTORS
330
C
102
}
330
C
100
AcDbXrecord
280
     1
300
AMECH_PP
300
2024
300

  0
DICTIONARY
  5
490
102
{ACAD_REACTORS
330
C
102
}
330
C
100
AcDbDictionary
281
     1
  0
DICTIONARY
  5
4A8
102
{ACAD_REACTORS
330
C
102
}
330
C
100
AcDbDictionary
281
     1
  3
Metric50
350
4A9
  0
DICTIONARY
  5
D
102
{ACAD_REACTORS
330
C
102
}
330
C
100
AcDbDictionary
281
     1
  0
XRECORD
  5
4FF
102
{ACAD_REACTORS
330
C
102
}
330
C
100
AcDbXrecord
280
     1
300
{D079931D-038B-8B43-8352-7FC321E11FA6}
301
{E19CF0C2-6108-D244-9634-663270280F17}
302
{D079931D-038B-8B43-8352-7FC321E11FA6}
303
\\svfl01\Data\客先\あ行\うり）URIMAT Japan\06_客先図面\20230921_URIMAT Japan_変換\セット図_UR614G_SU614G_20230921.dxf
  0
DICTIONARY
  5
1A
102
{ACAD_REACTORS
330
C
102
}
330
C
100
AcDbDictionary
281
     1
  3
Model
350
4AA
  3
レイアウト1
350
4AB
  0
DICTIONARY
  5
3B
102
{ACAD_REACTORS
330
C
102
}
330
C
100
AcDbDictionary
281
     1
  3
BYBLOCK
350
3D
  3
BYLAYER
350
3C
  3
GLOBAL
350
3E
  0
DICTIONARY
  5
475
102
{ACAD_REACTORS
330
C
102
}
330
C
100
AcDbDictionary
281
     1
  3
Standard
350
4A5
  0
DICTIONARY
  5
17
102
{ACAD_REACTORS
330
C
102
}
330
C
100
AcDbDictionary
281
     1
  3
STANDARD
350
18
  0
DICTIONARY
  5
19
102
{ACAD_REACTORS
330
C
102
}
330
C
100
AcDbDictionary
281
     1
  0
ACDBDICTIONARYWDFLT
  5
484
102
{ACAD_REACTORS
330
C
102
}
330
C
100
AcDbDictionary
281
     1
  3
Normal
350
485
100
AcDbDictionaryWithDefault
340
485
  0
DICTIONARY
  5
493
102
{ACAD_REACTORS
330
C
102
}
330
C
100
AcDbDictionary
281
     1
  3
A0
350
494
  3
A1
350
495
  3
A2
350
496
  3
A3
350
497
  3
A4
350
498
  3
A5
350
499
  3
A6
350
49A
  3
A7
350
49B
  3
A8
350
49C
  3
A9
350
49D
  3
B0
350
49E
  3
B1
350
49F
  3
B2
350
4A0
  3
B3
350
4A1
  3
B4
350
4A2
  3
B5
350
4A3
  3
B6
350
4A4
  0
DICTIONARY
  5
4A6
102
{ACAD_REACTORS
330
C
102
}
330
C
100
AcDbDictionary
281
     1
  3
Metric50
350
4A7
  0
DICTIONARY
  5
491
102
{ACAD_REACTORS
330
C
102
}
330
C
100
AcDbDictionary
281
     1
  3
Standard
350
492
  0
DICTIONARY
  5
2A
102
{ACAD_REACTORS
330
C
102
}
330
C
100
AcDbDictionary
281
     1
  3
2DWIREFRAME
350
2F
  3
3D_HIDDEN
350
31
  3
3DWIREFRAME
350
30
  3
BASIC
350
32
  3
BRIGHTEN
350
36
  3
COLORCHANGE
350
3A
  3
CONCEPTUAL
350
34
  3
DIM
350
35
  3
EdgeColorOff
350
48F
  3
FACEPATTERN
350
39
  3
FLAT
350
2B
  3
FLATWITHEDGES
350
2C
  3
GOURAUD
350
2D
  3
GOURAUDWITHEDGES
350
2E
  3
Hidden
350
487
  3
JitterOff
350
48D
  3
LINEPATTERN
350
38
  3
OverhangOff
350
48E
  3
REALISTIC
350
33
  3
Shaded
350
48C
  3
Shaded with edges
350
48B
  3
Shades of Gray
350
488
  3
Sketchy
350
489
  3
THICKEN
350
37
  3
Wireframe
350
486
  3
X-Ray
350
48A
  0
XRECORD
  5
512
102
{ACAD_REACTORS
330
C
102
}
330
C
100
AcDbXrecord
280
     1
 90
        1
330
492
  0
DICTIONARY
  5
473
102
{ACAD_REACTORS
330
C
102
}
330
C
100
AcDbDictionary
281
     1
  3
CANNOSCALE
350
50C
  3
CMLEADERSTYLE
350
508
  3
CTABLESTYLE
350
507
  3
CVIEWDETAILSTYLE
350
509
  3
CVIEWSECTIONSTYLE
350
50A
  3
DIMASSOC
350
478
  3
HIDETEXT
350
479
  3
LAYEREVAL
350
50E
  3
LAYERNOTIFY
350
50F
  3
LIGHTINGUNITS
350
50D
  3
MSLTSCALE
350
50B
  0
DICTIONARY
  5
4B4
102
{ACAD_REACTORS
330
4B3
102
}
330
4B3
100
AcDbDictionary
281
     1
  0
XRECORD
  5
501
102
{ACAD_REACTORS
330
500
102
}
330
500
100
AcDbXrecord
280
     1
290
     1
  0
XRECORD
  5
503
102
{ACAD_REACTORS
330
502
102
}
330
502
100
AcDbXrecord
280
     1
290
     1
  0
XRECORD
  5
505
102
{ACAD_REACTORS
330
504
102
}
330
504
100
AcDbXrecord
280
     1
290
     1
  0
XRECORD
  5
506
102
{ACAD_REACTORS
330
4B1
102
}
330
4B1
100
AcDbXrecord
280
     1
290
     1
  0
ACDBDETAILVIEWSTYLE
  5
4A9
102
{ACAD_XDICTIONARY
360
549
102
}
102
{ACAD_REACTORS
330
4A8
102
}
330
4A8
100
AcDbModelDocViewStyle
 70
     0
  3
Metric50
290
     0
100
AcDbDetailViewStyle
 70
     0
 71
     0
 90
        3
 71
     1
340
11
 62
   256
 40
5.0
340
0
 62
   256
 40
5.0
300

 40
0.0
280
     1
 71
     2
340
16
 90
       25
 62
   256
 71
     3
340
11
 62
   256
 40
5.0
 90
        0
 40
15.0
 90
        1
300
%<\AcVar ViewDetailId>% (%<\AcVar ViewScale \f "%sn">%)
 71
     4
340
16
 90
       25
 62
   256
340
16
 90
       25
 62
   256
280
     0
  0
LAYOUT
  5
4AA
102
{ACAD_REACTORS
330
1A
102
}
330
1A
100
AcDbPlotSettings
  1

  2
Brother MFC-L8650CDW Printer (4 コピー)
  4

  6

 40
0.0
 41
0.0
 42
0.0
 43
0.0
 44
0.0
 45
0.0
 46
0.0
 47
0.0
 48
0.0
 49
0.0
140
0.0
141
0.0
142
1.0
143
1.0
 70
  1712
 72
     0
 73
     0
 74
     0
  7

 75
     0
147
1.0
 76
     0
 77
     2
 78
   300
148
0.0
149
0.0
100
AcDbLayout
  1
Model
 70
     1
 71
     0
 10
0.0
 20
0.0
 11
12.0
 21
9.0
 12
0.0
 22
0.0
 32
0.0
 14
0.0
 24
0.0
 34
0.0
 15
0.0
 25
0.0
 35
0.0
146
0.0
 13
0.0
 23
0.0
 33
0.0
 16
1.0
 26
0.0
 36
0.0
 17
0.0
 27
1.0
 37
0.0
 76
     0
330
1F
331
29
  0
LAYOUT
  5
4AB
102
{ACAD_REACTORS
330
1A
102
}
330
1A
100
AcDbPlotSettings
  1

  2
Brother MFC-L8650CDW Printer (4 コピー)
  4

  6

 40
0.0
 41
0.0
 42
0.0
 43
0.0
 44
0.0
 45
0.0
 46
0.0
 47
0.0
 48
0.0
 49
0.0
140
0.0
141
0.0
142
1.0
143
1.0
 70
   688
 72
     0
 73
     0
 74
     5
  7

 75
    16
147
1.0
 76
     0
 77
     2
 78
   300
148
0.0
149
0.0
100
AcDbLayout
  1
レイアウト1
 70
     1
 71
     1
 10
0.0
 20
0.0
 11
420.0
 21
297.0
 12
0.0
 22
0.0
 32
0.0
 14
1.000000000000000E+20
 24
1.000000000000000E+20
 34
1.000000000000000E+20
 15
-1.000000000000000E+20
 25
-1.000000000000000E+20
 35
-1.000000000000000E+20
146
0.0
 13
0.0
 23
0.0
 33
0.0
 16
1.0
 26
0.0
 36
0.0
 17
0.0
 27
1.0
 37
0.0
 76
     0
330
1B
  0
MATERIAL
  5
3D
102
{ACAD_XDICTIONARY
360
47C
102
}
102
{ACAD_REACTORS
330
3B
102
}
330
3B
100
AcDbMaterial
  1
ByBlock
  0
MATERIAL
  5
3C
102
{ACAD_XDICTIONARY
360
47A
102
}
102
{ACAD_REACTORS
330
3B
102
}
330
3B
100
AcDbMaterial
  1
ByLayer
  0
MATERIAL
  5
3E
102
{ACAD_XDICTIONARY
360
47E
102
}
102
{ACAD_REACTORS
330
3B
102
}
330
3B
100
AcDbMaterial
  1
Global
  0
MLEADERSTYLE
  5
4A5
102
{ACAD_REACTORS
330
475
102
}
330
475
100
AcDbMLeaderStyle
179
     2
170
     2
171
     1
172
     0
 90
        2
 40
0.0
 41
0.0
173
     1
 91
-1056964608
340
14
 92
       -2
290
     1
 42
2.0
291
     1
 43
0.36
  3
Standard
 44
4.0
300

342
11
174
     1
178
     6
175
     1
176
     0
 93
-1056964608
 45
4.0
292
     0
297
     0
 46
4.0
 94
-1056964608
 47
1.0
 49
1.0
140
1.0
293
     1
141
0.0
294
     1
177
     0
142
1.0
295
     0
296
     0
143
0.125
271
     0
272
     9
273
     9
  0
MLINESTYLE
  5
18
102
{ACAD_REACTORS
330
17
102
}
330
17
100
AcDbMlineStyle
  2
STANDARD
 70
     0
  3

 62
   256
 51
90.0
 52
90.0
 71
     2
 49
0.5
 62
   256
  6
BYLAYER
 49
-0.5
 62
   256
  6
BYLAYER
  0
ACDBPLACEHOLDER
  5
485
102
{ACAD_REACTORS
330
484
102
}
330
484
  0
SCALE
  5
494
102
{ACAD_REACTORS
330
493
102
}
330
493
100
AcDbScale
 70
     0
300
1:1
140
1.0
141
1.0
290
     1
  0
SCALE
  5
495
102
{ACAD_REACTORS
330
493
102
}
330
493
100
AcDbScale
 70
     0
300
1:2
140
1.0
141
2.0
290
     0
  0
SCALE
  5
496
102
{ACAD_REACTORS
330
493
102
}
330
493
100
AcDbScale
 70
     0
300
1:4
140
1.0
141
4.0
290
     0
  0
SCALE
  5
497
102
{ACAD_REACTORS
330
493
102
}
330
493
100
AcDbScale
 70
     0
300
1:5
140
1.0
141
5.0
290
     0
  0
SCALE
  5
498
102
{ACAD_REACTORS
330
493
102
}
330
493
100
AcDbScale
 70
     0
300
1:8
140
1.0
141
8.0
290
     0
  0
SCALE
  5
499
102
{ACAD_REACTORS
330
493
102
}
330
493
100
AcDbScale
 70
     0
300
1:10
140
1.0
141
10.0
290
     0
  0
SCALE
  5
49A
102
{ACAD_REACTORS
330
493
102
}
330
493
100
AcDbScale
 70
     0
300
1:16
140
1.0
141
16.0
290
     0
  0
SCALE
  5
49B
102
{ACAD_REACTORS
330
493
102
}
330
493
100
AcDbScale
 70
     0
300
1:20
140
1.0
141
20.0
290
     0
  0
SCALE
  5
49C
102
{ACAD_REACTORS
330
493
102
}
330
493
100
AcDbScale
 70
     0
300
1:30
140
1.0
141
30.0
290
     0
  0
SCALE
  5
49D
102
{ACAD_REACTORS
330
493
102
}
330
493
100
AcDbScale
 70
     0
300
1:40
140
1.0
141
40.0
290
     0
  0
SCALE
  5
49E
102
{ACAD_REACTORS
330
493
102
}
330
493
100
AcDbScale
 70
     0
300
1:50
140
1.0
141
50.0
290
     0
  0
SCALE
  5
49F
102
{ACAD_REACTORS
330
493
102
}
330
493
100
AcDbScale
 70
     0
300
1:100
140
1.0
141
100.0
290
     0
  0
SCALE
  5
4A0
102
{ACAD_REACTORS
330
493
102
}
330
493
100
AcDbScale
 70
     0
300
2:1
140
2.0
141
1.0
290
     0
  0
SCALE
  5
4A1
102
{ACAD_REACTORS
330
493
102
}
330
493
100
AcDbScale
 70
     0
300
4:1
140
4.0
141
1.0
290
     0
  0
SCALE
  5
4A2
102
{ACAD_REACTORS
330
493
102
}
330
493
100
AcDbScale
 70
     0
300
8:1
140
8.0
141
1.0
290
     0
  0
SCALE
  5
4A3
102
{ACAD_REACTORS
330
493
102
}
330
493
100
AcDbScale
 70
     0
300
10:1
140
10.0
141
1.0
290
     0
  0
SCALE
  5
4A4
102
{ACAD_REACTORS
330
493
102
}
330
493
100
AcDbScale
 70
     0
300
100:1
140
100.0
141
1.0
290
     0
  0
ACDBSECTIONVIEWSTYLE
  5
4A7
102
{ACAD_XDICTIONARY
360
547
102
}
102
{ACAD_REACTORS
330
4A6
102
}
330
4A6
100
AcDbModelDocViewStyle
 70
     0
  3
Metric50
290
     0
100
AcDbSectionViewStyle
 70
     0
 71
     0
 90
      102
 71
     1
340
11
 62
   256
 40
5.0
340
0
340
0
 62
   256
 40
5.0
300
I, O, Q, S, X, Z
 40
10.0
 90
        0
 40
2.5
 90
        0
 71
     2
340
16
 90
       25
 62
   256
340
16
 90
       50
 62
   256
 40
5.0
 40
2.5
 40
5.0
 71
     3
340
11
 62
   256
 40
5.0
 90
        0
 40
15.0
 90
        1
300
%<\AcVar ViewSectionStartId>%-%<\AcVar ViewSectionEndId>% (%<\AcVar ViewScale \f "%sn">%)
 71
     4
 62
   256
 62
   257
300
ANSI31
 40
1.0
 90
        0
290
     0
290
     0
 90
        6
 40
0.0
 40
1.570796326794896
 40
0.2617993877991494
 40
1.308996938995747
 40
-0.2617993877991494
 40
1.832595714594046
  0
TABLESTYLE
  5
492
102
{ACAD_XDICTIONARY
360
510
102
}
102
{ACAD_REACTORS
330
491
102
}
330
491
100
AcDbTableStyle
280
     0
  3
Standard
 70
     0
 71
     0
 40
1.5
 41
1.5
280
     0
281
     0
  7
STANDARD
140
4.5
170
     2
 62
     0
 63
     7
283
     0
 90
      512
 91
        0
  1

274
    -2
284
     1
 64
     0
275
    -2
285
     1
 65
     0
276
    -2
286
     1
 66
     0
277
    -2
287
     1
 67
     0
278
    -2
288
     1
 68
     0
279
    -2
289
     1
 69
     0
  7
STANDARD
140
6.0
170
     5
 62
     0
 63
     7
283
     0
 90
      512
 91
        0
  1

274
    -2
284
     1
 64
     0
275
    -2
285
     1
 65
     0
276
    -2
286
     1
 66
     0
277
    -2
287
     1
 67
     0
278
    -2
288
     1
 68
     0
279
    -2
289
     1
 69
     0
  7
STANDARD
140
4.5
170
     5
 62
     0
 63
     7
283
     0
 90
      512
 91
        0
  1

274
    -2
284
     1
 64
     0
275
    -2
285
     1
 65
     0
276
    -2
286
     1
 66
     0
277
    -2
287
     1
 67
     0
278
    -2
288
     1
 68
     0
279
    -2
289
     1
 69
     0
  0
VISUALSTYLE
  5
2F
102
{ACAD_XDICTIONARY
360
51B
102
}
102
{ACAD_REACTORS
330
2A
102
}
330
2A
100
AcDbVisualStyle
  2
2dWireframe
 70
     4
177
     2
291
     0
 71
     0
176
     1
 72
     2
176
     1
 73
     0
176
     1
 90
        0
176
     1
 40
0.6
176
     1
 41
30.0
176
     1
 63
     7
176
     1
 74
     1
176
     1
 91
        4
176
     1
 64
     7
176
     1
 65
   257
176
     1
 75
     1
176
     1
175
     1
176
     1
 42
1.0
176
     1
 92
        0
176
     1
 66
   257
176
     1
 43
1.0
176
     1
 76
     1
176
     1
 77
     6
176
     1
 78
     2
176
     1
 67
     7
176
     1
 79
     5
176
     1
170
     0
176
     1
171
     0
176
     1
290
     0
176
     1
 93
        1
176
     1
 44
0.0
176
     1
173
     0
176
     1
1001
ACAD
1000
AcDbSavedByObjectVersion
1070
     0
  0
VISUALSTYLE
  5
31
102
{ACAD_XDICTIONARY
360
51F
102
}
102
{ACAD_REACTORS
330
2A
102
}
330
2A
100
AcDbVisualStyle
  2
3D Hidden
 70
     6
177
     2
291
     0
 71
     1
176
     1
 72
     2
176
     1
 73
     2
176
     1
 90
        0
176
     1
 40
0.6
176
     1
 41
30.0
176
     1
 63
     7
176
     1
 74
     2
176
     1
 91
        2
176
     1
 64
     7
176
     1
 65
   257
176
     1
 75
     2
176
     1
175
     1
176
     1
 42
40.0
176
     1
 92
        0
176
     1
 66
   257
176
     1
 43
1.0
176
     1
 76
     1
176
     1
 77
     6
176
     1
 78
     2
176
     1
 67
     7
176
     1
 79
     3
176
     1
170
     0
176
     1
171
     0
176
     1
290
     0
176
     1
 93
        1
176
     1
 44
0.0
176
     1
173
     0
176
     1
1001
ACAD
1000
AcDbSavedByObjectVersion
1070
     0
  0
VISUALSTYLE
  5
30
102
{ACAD_XDICTIONARY
360
51D
102
}
102
{ACAD_REACTORS
330
2A
102
}
330
2A
100
AcDbVisualStyle
  2
3dWireframe
 70
     5
177
     2
291
     0
 71
     0
176
     1
 72
     2
176
     1
 73
     0
176
     1
 90
        0
176
     1
 40
0.6
176
     1
 41
30.0
176
     1
 63
     7
176
     1
 74
     1
176
     1
 91
        4
176
     1
 64
     7
176
     1
 65
   257
176
     1
 75
     1
176
     1
175
     1
176
     1
 42
1.0
176
     1
 92
        0
176
     1
 66
   257
176
     1
 43
1.0
176
     1
 76
     1
176
     1
 77
     6
176
     1
 78
     2
176
     1
 67
     7
176
     1
 79
     5
176
     1
170
     0
176
     1
171
     0
176
     1
290
     0
176
     1
 93
        1
176
     1
 44
0.0
176
     1
173
     0
176
     1
1001
ACAD
1000
AcDbSavedByObjectVersion
1070
     0
  0
VISUALSTYLE
  5
32
102
{ACAD_XDICTIONARY
360
521
102
}
102
{ACAD_REACTORS
330
2A
102
}
330
2A
100
AcDbVisualStyle
  2
Basic
 70
     7
177
     2
291
     1
 71
     1
176
     1
 72
     0
176
     1
 73
     1
176
     1
 90
        0
176
     1
 40
0.6
176
     1
 41
30.0
176
     1
 63
     7
176
     1
 74
     0
176
     1
 91
        4
176
     1
 64
     7
176
     1
 65
   257
176
     1
 75
     1
176
     1
175
     1
176
     1
 42
1.0
176
     1
 92
        8
176
     1
 66
     7
176
     1
 43
1.0
176
     1
 76
     1
176
     1
 77
     6
176
     1
 78
     2
176
     1
 67
     7
176
     1
 79
     5
176
     1
170
     0
176
     1
171
     0
176
     1
290
     0
176
     1
 93
        1
176
     1
 44
0.0
176
     1
173
     0
176
     1
1001
ACAD
1000
AcDbSavedByObjectVersion
1070
     0
  0
VISUALSTYLE
  5
36
102
{ACAD_XDICTIONARY
360
529
102
}
102
{ACAD_REACTORS
330
2A
102
}
330
2A
100
AcDbVisualStyle
  2
Brighten
 70
    12
177
     2
291
     1
 71
     2
176
     1
 72
     2
176
     1
 73
     0
176
     1
 90
        0
176
     1
 40
0.6
176
     1
 41
30.0
176
     1
 63
     7
176
     1
 74
     1
176
     1
 91
        4
176
     1
 64
     7
176
     1
 65
   257
176
     1
 75
     1
176
     1
175
     1
176
     1
 42
1.0
176
     1
 92
        8
176
     1
 66
     7
176
     1
 43
1.0
176
     1
 76
     1
176
     1
 77
     6
176
     1
 78
     2
176
     1
 67
     7
176
     1
 79
     5
176
     1
170
     0
176
     1
171
     0
176
     1
290
     0
176
     1
 93
        1
176
     1
 44
50.0
176
     1
173
     0
176
     1
1001
ACAD
1000
AcDbSavedByObjectVersion
1070
     0
  0
VISUALSTYLE
  5
3A
102
{ACAD_XDICTIONARY
360
531
102
}
102
{ACAD_REACTORS
330
2A
102
}
330
2A
100
AcDbVisualStyle
  2
ColorChange
 70
    16
177
     2
291
     1
 71
     2
176
     1
 72
     2
176
     1
 73
     3
176
     1
 90
        0
176
     1
 40
0.6
176
     1
 41
30.0
176
     1
 63
     8
176
     1
 74
     1
176
     1
 91
        4
176
     1
 64
     7
176
     1
 65
   257
176
     1
 75
     1
176
     1
175
     1
176
     1
 42
1.0
176
     1
 92
        8
176
     1
 66
     8
176
     1
 43
1.0
176
     1
 76
     1
176
     1
 77
     6
176
     1
 78
     2
176
     1
 67
     7
176
     1
 79
     5
176
     1
170
     0
176
     1
171
     0
176
     1
290
     0
176
     1
 93
        1
176
     1
 44
0.0
176
     1
173
     0
176
     1
1001
ACAD
1000
AcDbSavedByObjectVersion
1070
     0
  0
VISUALSTYLE
  5
34
102
{ACAD_XDICTIONARY
360
525
102
}
102
{ACAD_REACTORS
330
2A
102
}
330
2A
100
AcDbVisualStyle
  2
Conceptual
 70
     9
177
     2
291
     0
 71
     3
176
     1
 72
     2
176
     1
 73
     0
176
     1
 90
        0
176
     1
 40
0.6
176
     1
 41
30.0
176
     1
 63
     7
176
     1
 74
     2
176
     1
 91
        2
176
     1
 64
     7
176
     1
 65
   257
176
     1
 75
     1
176
     1
175
     1
176
     1
 42
40.0
176
     1
 92
        8
176
     1
 66
     7
176
     1
 43
1.0
176
     1
 76
     1
176
     1
 77
     6
176
     1
 78
     2
176
     1
 67
     7
176
     1
 79
     3
176
     1
170
     0
176
     1
171
     0
176
     1
290
     0
176
     1
 93
        1
176
     1
 44
0.0
176
     1
173
     0
176
     1
1001
ACAD
1000
AcDbSavedByObjectVersion
1070
     0
  0
VISUALSTYLE
  5
35
102
{ACAD_XDICTIONARY
360
527
102
}
102
{ACAD_REACTORS
330
2A
102
}
330
2A
100
AcDbVisualStyle
  2
Dim
 70
    11
177
     2
291
     1
 71
     2
176
     1
 72
     2
176
     1
 73
     0
176
     1
 90
        0
176
     1
 40
0.6
176
     1
 41
30.0
176
     1
 63
     7
176
     1
 74
     1
176
     1
 91
        4
176
     1
 64
     7
176
     1
 65
   257
176
     1
 75
     1
176
     1
175
     1
176
     1
 42
1.0
176
     1
 92
        8
176
     1
 66
     7
176
     1
 43
1.0
176
     1
 76
     1
176
     1
 77
     6
176
     1
 78
     2
176
     1
 67
     7
176
     1
 79
     5
176
     1
170
     0
176
     1
171
     0
176
     1
290
     0
176
     1
 93
        1
176
     1
 44
-50.0
176
     1
173
     0
176
     1
1001
ACAD
1000
AcDbSavedByObjectVersion
1070
     0
  0
VISUALSTYLE
  5
48F
102
{ACAD_XDICTIONARY
360
545
102
}
102
{ACAD_REACTORS
330
2A
102
}
330
2A
100
AcDbVisualStyle
  2
EdgeColorOff
 70
    22
177
     2
291
     1
 71
     2
176
     0
 72
     2
176
     0
 73
     0
176
     0
 90
        0
176
     0
 40
0.6
176
     0
 41
30.0
176
     0
 63
     7
421
 16777215
176
     0
 74
     1
176
     0
 91
        4
176
     0
 64
     7
176
     0
 65
   257
176
     0
 75
     1
176
     0
175
     1
176
     0
 42
1.0
176
     0
 92
        8
176
     2
 66
     7
176
     0
 43
1.0
176
     0
 76
     1
176
     0
 77
     6
176
     0
 78
     2
176
     0
 67
     7
176
     0
 79
     5
176
     0
170
     0
176
     0
171
     0
176
     0
290
     0
176
     0
 93
        1
176
     0
 44
0.0
176
     0
173
     0
176
     0
1001
ACAD
1000
AcDbSavedByObjectVersion
1070
     0
  0
VISUALSTYLE
  5
39
102
{ACAD_XDICTIONARY
360
52F
102
}
102
{ACAD_REACTORS
330
2A
102
}
330
2A
100
AcDbVisualStyle
  2
Facepattern
 70
    15
177
     2
291
     1
 71
     2
176
     1
 72
     2
176
     1
 73
     0
176
     1
 90
        0
176
     1
 40
0.6
176
     1
 41
30.0
176
     1
 63
     7
176
     1
 74
     1
176
     1
 91
        4
176
     1
 64
     7
176
     1
 65
   257
176
     1
 75
     1
176
     1
175
     1
176
     1
 42
1.0
176
     1
 92
        8
176
     1
 66
     7
176
     1
 43
1.0
176
     1
 76
     1
176
     1
 77
     6
176
     1
 78
     2
176
     1
 67
     7
176
     1
 79
     5
176
     1
170
     0
176
     1
171
     0
176
     1
290
     0
176
     1
 93
        1
176
     1
 44
0.0
176
     1
173
     0
176
     1
1001
ACAD
1000
AcDbSavedByObjectVersion
1070
     0
  0
VISUALSTYLE
  5
2B
102
{ACAD_XDICTIONARY
360
513
102
}
102
{ACAD_REACTORS
330
2A
102
}
330
2A
100
AcDbVisualStyle
  2
Flat
 70
     0
177
     2
291
     1
 71
     2
176
     1
 72
     1
176
     1
 73
     1
176
     1
 90
        2
176
     1
 40
0.6
176
     1
 41
30.0
176
     1
 63
     7
176
     1
 74
     0
176
     1
 91
        4
176
     1
 64
     7
176
     1
 65
   257
176
     1
 75
     1
176
     1
175
     1
176
     1
 42
1.0
176
     1
 92
        8
176
     1
 66
     7
176
     1
 43
1.0
176
     1
 76
     1
176
     1
 77
     6
176
     1
 78
     2
176
     1
 67
     7
176
     1
 79
     5
176
     1
170
     0
176
     1
171
     0
176
     1
290
     0
176
     1
 93
       13
176
     1
 44
0.0
176
     1
173
     0
176
     1
1001
ACAD
1000
AcDbSavedByObjectVersion
1070
     0
  0
VISUALSTYLE
  5
2C
102
{ACAD_XDICTIONARY
360
515
102
}
102
{ACAD_REACTORS
330
2A
102
}
330
2A
100
AcDbVisualStyle
  2
FlatWithEdges
 70
     1
177
     2
291
     1
 71
     2
176
     1
 72
     1
176
     1
 73
     1
176
     1
 90
        2
176
     1
 40
0.6
176
     1
 41
30.0
176
     1
 63
     7
176
     1
 74
     1
176
     1
 91
        4
176
     1
 64
     7
176
     1
 65
   257
176
     1
 75
     1
176
     1
175
     1
176
     1
 42
1.0
176
     1
 92
        0
176
     1
 66
   257
176
     1
 43
1.0
176
     1
 76
     1
176
     1
 77
     6
176
     1
 78
     2
176
     1
 67
     7
176
     1
 79
     5
176
     1
170
     0
176
     1
171
     0
176
     1
290
     0
176
     1
 93
       13
176
     1
 44
0.0
176
     1
173
     0
176
     1
1001
ACAD
1000
AcDbSavedByObjectVersion
1070
     0
  0
VISUALSTYLE
  5
2D
102
{ACAD_XDICTIONARY
360
517
102
}
102
{ACAD_REACTORS
330
2A
102
}
330
2A
100
AcDbVisualStyle
  2
Gouraud
 70
     2
177
     2
291
     1
 71
     2
176
     1
 72
     2
176
     1
 73
     1
176
     1
 90
        2
176
     1
 40
0.6
176
     1
 41
30.0
176
     1
 63
     7
176
     1
 74
     0
176
     1
 91
        4
176
     1
 64
     7
176
     1
 65
   257
176
     1
 75
     1
176
     1
175
     1
176
     1
 42
1.0
176
     1
 92
        0
176
     1
 66
     7
176
     1
 43
1.0
176
     1
 76
     1
176
     1
 77
     6
176
     1
 78
     2
176
     1
 67
     7
176
     1
 79
     5
176
     1
170
     0
176
     1
171
     0
176
     1
290
     0
176
     1
 93
       13
176
     1
 44
0.0
176
     1
173
     0
176
     1
1001
ACAD
1000
AcDbSavedByObjectVersion
1070
     0
  0
VISUALSTYLE
  5
2E
102
{ACAD_XDICTIONARY
360
519
102
}
102
{ACAD_REACTORS
330
2A
102
}
330
2A
100
AcDbVisualStyle
  2
GouraudWithEdges
 70
     3
177
     2
291
     1
 71
     2
176
     1
 72
     2
176
     1
 73
     1
176
     1
 90
        2
176
     1
 40
0.6
176
     1
 41
30.0
176
     1
 63
     7
176
     1
 74
     1
176
     1
 91
        4
176
     1
 64
     7
176
     1
 65
   257
176
     1
 75
     1
176
     1
175
     1
176
     1
 42
1.0
176
     1
 92
        0
176
     1
 66
   257
176
     1
 43
1.0
176
     1
 76
     1
176
     1
 77
     6
176
     1
 78
     2
176
     1
 67
     7
176
     1
 79
     5
176
     1
170
     0
176
     1
171
     0
176
     1
290
     0
176
     1
 93
       13
176
     1
 44
0.0
176
     1
173
     0
176
     1
1001
ACAD
1000
AcDbSavedByObjectVersion
1070
     0
  0
VISUALSTYLE
  5
487
102
{ACAD_XDICTIONARY
360
535
102
}
102
{ACAD_REACTORS
330
2A
102
}
330
2A
100
AcDbVisualStyle
  2
Hidden
 70
     6
177
     2
291
     0
 71
     1
176
     1
 72
     2
176
     1
 73
     2
176
     1
 90
        0
176
     1
 40
0.6
176
     1
 41
30.0
176
     1
 63
     7
421
 16777215
176
     1
 74
     2
176
     1
 91
        2
176
     1
 64
     7
176
     1
 65
   257
176
     1
 75
     2
176
     1
175
     1
176
     1
 42
40.0
176
     1
 92
        0
176
     1
 66
   257
176
     1
 43
1.0
176
     1
 76
     1
176
     1
 77
     6
176
     1
 78
     2
176
     1
 67
     7
176
     1
 79
     3
176
     1
170
     0
176
     1
171
     0
176
     1
290
     0
176
     1
 93
        1
176
     1
 44
0.0
176
     1
173
     0
176
     1
1001
ACAD
1000
AcDbSavedByObjectVersion
1070
     0
  0
VISUALSTYLE
  5
48D
102
{ACAD_XDICTIONARY
360
541
102
}
102
{ACAD_REACTORS
330
2A
102
}
330
2A
100
AcDbVisualStyle
  2
JitterOff
 70
    20
177
     2
291
     1
 71
     2
176
     0
 72
     2
176
     0
 73
     0
176
     0
 90
        0
176
     0
 40
0.6
176
     0
 41
30.0
176
     0
 63
     7
421
 16777215
176
     0
 74
     1
176
     0
 91
        4
176
     0
 64
     7
176
     0
 65
   257
176
     0
 75
     1
176
     0
175
     1
176
     0
 42
1.0
176
     0
 92
       10
176
     2
 66
     7
176
     0
 43
1.0
176
     0
 76
     1
176
     0
 77
     6
176
     0
 78
     2
176
     0
 67
     7
176
     0
 79
     5
176
     0
170
     0
176
     0
171
     0
176
     0
290
     0
176
     0
 93
        1
176
     0
 44
0.0
176
     0
173
     0
176
     0
1001
ACAD
1000
AcDbSavedByObjectVersion
1070
     0
  0
VISUALSTYLE
  5
38
102
{ACAD_XDICTIONARY
360
52D
102
}
102
{ACAD_REACTORS
330
2A
102
}
330
2A
100
AcDbVisualStyle
  2
Linepattern
 70
    14
177
     2
291
     1
 71
     2
176
     1
 72
     2
176
     1
 73
     0
176
     1
 90
        0
176
     1
 40
0.6
176
     1
 41
30.0
176
     1
 63
     7
176
     1
 74
     1
176
     1
 91
        4
176
     1
 64
     7
176
     1
 65
   257
176
     1
 75
     7
176
     1
175
     7
176
     1
 42
1.0
176
     1
 92
        8
176
     1
 66
     7
176
     1
 43
1.0
176
     1
 76
     1
176
     1
 77
     6
176
     1
 78
     2
176
     1
 67
     7
176
     1
 79
     5
176
     1
170
     0
176
     1
171
     0
176
     1
290
     0
176
     1
 93
        1
176
     1
 44
0.0
176
     1
173
     0
176
     1
1001
ACAD
1000
AcDbSavedByObjectVersion
1070
     0
  0
VISUALSTYLE
  5
48E
102
{ACAD_XDICTIONARY
360
543
102
}
102
{ACAD_REACTORS
330
2A
102
}
330
2A
100
AcDbVisualStyle
  2
OverhangOff
 70
    21
177
     2
291
     1
 71
     2
176
     0
 72
     2
176
     0
 73
     0
176
     0
 90
        0
176
     0
 40
0.6
176
     0
 41
30.0
176
     0
 63
     7
421
 16777215
176
     0
 74
     1
176
     0
 91
        4
176
     0
 64
     7
176
     0
 65
   257
176
     0
 75
     1
176
     0
175
     1
176
     0
 42
1.0
176
     0
 92
        9
176
     2
 66
     7
176
     0
 43
1.0
176
     0
 76
     1
176
     0
 77
     6
176
     0
 78
     2
176
     0
 67
     7
176
     0
 79
     5
176
     0
170
     0
176
     0
171
     0
176
     0
290
     0
176
     0
 93
        1
176
     0
 44
0.0
176
     0
173
     0
176
     0
1001
ACAD
1000
AcDbSavedByObjectVersion
1070
     0
  0
VISUALSTYLE
  5
33
102
{ACAD_XDICTIONARY
360
523
102
}
102
{ACAD_REACTORS
330
2A
102
}
330
2A
100
AcDbVisualStyle
  2
Realistic
 70
     8
177
     2
291
     0
 71
     2
176
     1
 72
     2
176
     1
 73
     0
176
     1
 90
        0
176
     1
 40
0.6
176
     1
 41
30.0
176
     1
 63
     7
176
     1
 74
     1
176
     1
 91
        0
176
     1
 64
     7
176
     1
 65
   257
176
     1
 75
     1
176
     1
175
     1
176
     1
 42
1.0
176
     1
 92
        8
176
     1
 66
     8
176
     1
 43
1.0
176
     1
 76
     1
176
     1
 77
     6
176
     1
 78
     2
176
     1
 67
     7
176
     1
 79
     5
176
     1
170
     0
176
     1
171
     0
176
     1
290
     0
176
     1
 93
       13
176
     1
 44
0.0
176
     1
173
     0
176
     1
1001
ACAD
1000
AcDbSavedByObjectVersion
1070
     0
  0
VISUALSTYLE
  5
48C
102
{ACAD_XDICTIONARY
360
53F
102
}
102
{ACAD_REACTORS
330
2A
102
}
330
2A
100
AcDbVisualStyle
  2
Shaded
 70
    27
177
     2
291
     0
 71
     2
176
     1
 72
     2
176
     1
 73
     1
176
     1
 90
        2
176
     1
 40
0.6
176
     1
 41
30.0
176
     1
 63
     7
421
 16777215
176
     1
 74
     0
176
     1
 91
        4
176
     1
 64
     7
176
     1
 65
   257
176
     1
 75
     1
176
     1
175
     1
176
     1
 42
1.0
176
     1
 92
        8
176
     1
 66
   257
176
     1
 43
1.0
176
     1
 76
     1
176
     1
 77
     6
176
     1
 78
     2
176
     1
 67
     8
425
  7895160
176
     1
 79
     3
176
     1
170
     0
176
     1
171
     0
176
     1
290
     0
176
     1
 93
        5
176
     1
 44
0.0
176
     1
173
     0
176
     1
1001
ACAD
1000
AcDbSavedByObjectVersion
1070
     0
  0
VISUALSTYLE
  5
48B
102
{ACAD_XDICTIONARY
360
53D
102
}
102
{ACAD_REACTORS
330
2A
102
}
330
2A
100
AcDbVisualStyle
  2
Shaded with edges
 70
    26
177
     2
291
     0
 71
     2
176
     1
 72
     2
176
     1
 73
     1
176
     1
 90
        2
176
     1
 40
0.6
176
     1
 41
30.0
176
     1
 63
     7
421
 16777215
176
     1
 74
     1
176
     1
 91
        2
176
     1
 64
     7
176
     1
 65
   257
176
     1
 75
     2
176
     1
175
     1
176
     1
 42
1.0
176
     1
 92
        8
176
     1
 66
   257
176
     1
 43
1.0
176
     1
 76
     1
176
     1
 77
     6
176
     1
 78
     2
176
     1
 67
     7
176
     1
 79
     3
176
     1
170
     0
176
     1
171
     0
176
     1
290
     0
176
     1
 93
        5
176
     1
 44
0.0
176
     1
173
     0
176
     1
1001
ACAD
1000
AcDbSavedByObjectVersion
1070
     0
  0
VISUALSTYLE
  5
488
102
{ACAD_XDICTIONARY
360
537
102
}
102
{ACAD_REACTORS
330
2A
102
}
330
2A
100
AcDbVisualStyle
  2
Shades of Gray
 70
    23
177
     2
291
     0
 71
     2
176
     1
 72
     2
176
     1
 73
     3
176
     1
 90
        0
176
     1
 40
0.6
176
     1
 41
30.0
176
     1
 63
     7
421
 16777215
176
     1
 74
     2
176
     1
 91
        2
176
     1
 64
     7
176
     1
 65
     7
176
     1
 75
     1
176
     1
175
     1
176
     1
 42
40.0
176
     1
 92
        8
176
     1
 66
     7
176
     1
 43
1.0
176
     1
 76
     1
176
     1
 77
     6
176
     1
 78
     2
176
     1
 67
     7
176
     1
 79
     3
176
     1
170
     0
176
     1
171
     0
176
     1
290
     0
176
     1
 93
        1
176
     1
 44
0.0
176
     1
173
     0
176
     1
1001
ACAD
1000
AcDbSavedByObjectVersion
1070
     0
  0
VISUALSTYLE
  5
489
102
{ACAD_XDICTIONARY
360
539
102
}
102
{ACAD_REACTORS
330
2A
102
}
330
2A
100
AcDbVisualStyle
  2
Sketchy
 70
    24
177
     2
291
     0
 71
     1
176
     1
 72
     2
176
     1
 73
     2
176
     1
 90
        0
176
     1
 40
0.6
176
     1
 41
30.0
176
     1
 63
     7
421
 16777215
176
     1
 74
     2
176
     1
 91
        2
176
     1
 64
     7
176
     1
 65
     7
176
     1
 75
     1
176
     1
175
     1
176
     1
 42
40.0
176
     1
 92
       11
176
     1
 66
     7
176
     1
 43
1.0
176
     1
 76
     1
176
     1
 77
     6
176
     1
 78
     2
176
     1
 67
     7
176
     1
 79
     6
176
     1
170
     0
176
     1
171
     0
176
     1
290
     0
176
     1
 93
        1
176
     1
 44
0.0
176
     1
173
     0
176
     1
1001
ACAD
1000
AcDbSavedByObjectVersion
1070
     0
  0
VISUALSTYLE
  5
37
102
{ACAD_XDICTIONARY
360
52B
102
}
102
{ACAD_REACTORS
330
2A
102
}
330
2A
100
AcDbVisualStyle
  2
Thicken
 70
    13
177
     2
291
     1
 71
     2
176
     1
 72
     2
176
     1
 73
     0
176
     1
 90
        0
176
     1
 40
0.6
176
     1
 41
30.0
176
     1
 63
     7
176
     1
 74
     1
176
     1
 91
        4
176
     1
 64
     7
176
     1
 65
   257
176
     1
 75
     1
176
     1
175
     1
176
     1
 42
1.0
176
     1
 92
       12
176
     1
 66
     7
176
     1
 43
1.0
176
     1
 76
     1
176
     1
 77
     6
176
     1
 78
     2
176
     1
 67
     7
176
     1
 79
     5
176
     1
170
     0
176
     1
171
     0
176
     1
290
     0
176
     1
 93
        1
176
     1
 44
0.0
176
     1
173
     0
176
     1
1001
ACAD
1000
AcDbSavedByObjectVersion
1070
     0
  0
VISUALSTYLE
  5
486
102
{ACAD_XDICTIONARY
360
533
102
}
102
{ACAD_REACTORS
330
2A
102
}
330
2A
100
AcDbVisualStyle
  2
Wireframe
 70
     5
177
     2
291
     0
 71
     0
176
     1
 72
     2
176
     1
 73
     0
176
     1
 90
        0
176
     1
 40
0.6
176
     1
 41
30.0
176
     1
 63
     7
421
 16777215
176
     1
 74
     1
176
     1
 91
        4
176
     1
 64
     7
176
     1
 65
   257
176
     1
 75
     1
176
     1
175
     1
176
     1
 42
1.0
176
     1
 92
        0
176
     1
 66
   257
176
     1
 43
1.0
176
     1
 76
     1
176
     1
 77
     6
176
     1
 78
     2
176
     1
 67
     7
176
     1
 79
     3
176
     1
170
     0
176
     1
171
     0
176
     1
290
     0
176
     1
 93
        1
176
     1
 44
0.0
176
     1
173
     0
176
     1
1001
ACAD
1000
AcDbSavedByObjectVersion
1070
     0
  0
VISUALSTYLE
  5
48A
102
{ACAD_XDICTIONARY
360
53B
102
}
102
{ACAD_REACTORS
330
2A
102
}
330
2A
100
AcDbVisualStyle
  2
X-Ray
 70
    25
177
     2
291
     0
 71
     2
176
     1
 72
     2
176
     1
 73
     1
176
     1
 90
        1
176
     1
 40
0.5
176
     1
 41
30.0
176
     1
 63
     7
421
 16777215
176
     1
 74
     1
176
     1
 91
        0
176
     1
 64
     7
176
     1
 65
   257
176
     1
 75
     1
176
     1
175
     1
176
     1
 42
1.0
176
     1
 92
        8
176
     1
 66
     7
176
     1
 43
1.0
176
     1
 76
     1
176
     1
 77
     6
176
     1
 78
     2
176
     1
 67
     7
176
     1
 79
     3
176
     1
170
     0
176
     1
171
     0
176
     1
290
     0
176
     1
 93
       13
176
     1
 44
0.0
176
     1
173
     0
176
     1
1001
ACAD
1000
AcDbSavedByObjectVersion
1070
     0
  0
DICTIONARYVAR
  5
50C
102
{ACAD_REACTORS
330
473
102
}
330
473
100
DictionaryVariables
280
     0
  1
1:1
  0
DICTIONARYVAR
  5
508
102
{ACAD_REACTORS
330
473
102
}
330
473
100
DictionaryVariables
280
     0
  1
STANDARD
  0
DICTIONARYVAR
  5
507
102
{ACAD_REACTORS
330
473
102
}
330
473
100
DictionaryVariables
280
     0
  1
STANDARD
  0
DICTIONARYVAR
  5
509
102
{ACAD_REACTORS
330
473
102
}
330
473
100
DictionaryVariables
280
     0
  1
Metric50
  0
DICTIONARYVAR
  5
50A
102
{ACAD_REACTORS
330
473
102
}
330
473
100
DictionaryVariables
280
     0
  1
Metric50
  0
DICTIONARYVAR
  5
478
102
{ACAD_REACTORS
330
473
102
}
330
473
100
DictionaryVariables
280
     0
  1
2
  0
DICTIONARYVAR
  5
479
102
{ACAD_REACTORS
330
473
102
}
330
473
100
DictionaryVariables
280
     0
  1
1
  0
DICTIONARYVAR
  5
50E
102
{ACAD_REACTORS
330
473
102
}
330
473
100
DictionaryVariables
280
     0
  1
1
  0
DICTIONARYVAR
  5
50F
102
{ACAD_REACTORS
330
473
102
}
330
473
100
DictionaryVariables
280
     0
  1
15
  0
DICTIONARYVAR
  5
50D
102
{ACAD_REACTORS
330
473
102
}
330
473
100
DictionaryVariables
280
     0
  1
0
  0
DICTIONARYVAR
  5
50B
102
{ACAD_REACTORS
330
473
102
}
330
473
100
DictionaryVariables
280
     0
  1
0
  0
DICTIONARY
  5
549
330
4A9
100
AcDbDictionary
280
     1
281
     1
  3
ACAD_XREC_ROUNDTRIP
360
54A
  0
DICTIONARY
  5
47C
330
3D
100
AcDbDictionary
280
     1
281
     1
  3
ACAD_XREC_ROUNDTRIP
360
47D
  0
DICTIONARY
  5
47A
330
3C
100
AcDbDictionary
280
     1
281
     1
  3
ACAD_XREC_ROUNDTRIP
360
47B
  0
DICTIONARY
  5
47E
330
3E
100
AcDbDictionary
280
     1
281
     1
  3
ACAD_XREC_ROUNDTRIP
360
47F
  0
DICTIONARY
  5
547
330
4A7
100
AcDbDictionary
280
     1
281
     1
  3
ACAD_XREC_ROUNDTRIP
360
548
  0
DICTIONARY
  5
510
330
492
100
AcDbDictionary
280
     1
281
     1
  3
ACAD_ROUNDTRIP_2008_TABLESTYLE_CELLSTYLEMAP
360
511
  0
DICTIONARY
  5
51B
330
2F
100
AcDbDictionary
280
     1
281
     1
  3
ACAD_XREC_ROUNDTRIP
360
51C
  0
DICTIONARY
  5
51F
330
31
100
AcDbDictionary
280
     1
281
     1
  3
ACAD_XREC_ROUNDTRIP
360
520
  0
DICTIONARY
  5
51D
330
30
100
AcDbDictionary
280
     1
281
     1
  3
ACAD_XREC_ROUNDTRIP
360
51E
  0
DICTIONARY
  5
521
330
32
100
AcDbDictionary
280
     1
281
     1
  3
ACAD_XREC_ROUNDTRIP
360
522
  0
DICTIONARY
  5
529
330
36
100
AcDbDictionary
280
     1
281
     1
  3
ACAD_XREC_ROUNDTRIP
360
52A
  0
DICTIONARY
  5
531
330
3A
100
AcDbDictionary
280
     1
281
     1
  3
ACAD_XREC_ROUNDTRIP
360
532
  0
DICTIONARY
  5
525
330
34
100
AcDbDictionary
280
     1
281
     1
  3
ACAD_XREC_ROUNDTRIP
360
526
  0
DICTIONARY
  5
527
330
35
100
AcDbDictionary
280
     1
281
     1
  3
ACAD_XREC_ROUNDTRIP
360
528
  0
DICTIONARY
  5
545
330
48F
100
AcDbDictionary
280
     1
281
     1
  3
ACAD_XREC_ROUNDTRIP
360
546
  0
DICTIONARY
  5
52F
330
39
100
AcDbDictionary
280
     1
281
     1
  3
ACAD_XREC_ROUNDTRIP
360
530
  0
DICTIONARY
  5
513
330
2B
100
AcDbDictionary
280
     1
281
     1
  3
ACAD_XREC_ROUNDTRIP
360
514
  0
DICTIONARY
  5
515
330
2C
100
AcDbDictionary
280
     1
281
     1
  3
ACAD_XREC_ROUNDTRIP
360
516
  0
DICTIONARY
  5
517
330
2D
100
AcDbDictionary
280
     1
281
     1
  3
ACAD_XREC_ROUNDTRIP
360
518
  0
DICTIONARY
  5
519
330
2E
100
AcDbDictionary
280
     1
281
     1
  3
ACAD_XREC_ROUNDTRIP
360
51A
  0
DICTIONARY
  5
535
330
487
100
AcDbDictionary
280
     1
281
     1
  3
ACAD_XREC_ROUNDTRIP
360
536
  0
DICTIONARY
  5
541
330
48D
100
AcDbDictionary
280
     1
281
     1
  3
ACAD_XREC_ROUNDTRIP
360
542
  0
DICTIONARY
  5
52D
330
38
100
AcDbDictionary
280
     1
281
     1
  3
ACAD_XREC_ROUNDTRIP
360
52E
  0
DICTIONARY
  5
543
330
48E
100
AcDbDictionary
280
     1
281
     1
  3
ACAD_XREC_ROUNDTRIP
360
544
  0
DICTIONARY
  5
523
330
33
100
AcDbDictionary
280
     1
281
     1
  3
ACAD_XREC_ROUNDTRIP
360
524
  0
DICTIONARY
  5
53F
330
48C
100
AcDbDictionary
280
     1
281
     1
  3
ACAD_XREC_ROUNDTRIP
360
540
  0
DICTIONARY
  5
53D
330
48B
100
AcDbDictionary
280
     1
281
     1
  3
ACAD_XREC_ROUNDTRIP
360
53E
  0
DICTIONARY
  5
537
330
488
100
AcDbDictionary
280
     1
281
     1
  3
ACAD_XREC_ROUNDTRIP
360
538
  0
DICTIONARY
  5
539
330
489
100
AcDbDictionary
280
     1
281
     1
  3
ACAD_XREC_ROUNDTRIP
360
53A
  0
DICTIONARY
  5
52B
330
37
100
AcDbDictionary
280
     1
281
     1
  3
ACAD_XREC_ROUNDTRIP
360
52C
  0
DICTIONARY
  5
533
330
486
100
AcDbDictionary
280
     1
281
     1
  3
ACAD_XREC_ROUNDTRIP
360
534
  0
DICTIONARY
  5
53B
330
48A
100
AcDbDictionary
280
     1
281
     1
  3
ACAD_XREC_ROUNDTRIP
360
53C
  0
XRECORD
  5
54A
102
{ACAD_REACTORS
330
549
102
}
330
549
100
AcDbXrecord
280
     1
102
DISPLAYNAME
  1
Metric50
102
FLAGS
 90
        0
  0
XRECORD
  5
47D
102
{ACAD_REACTORS
330
47C
102
}
330
47C
100
AcDbXrecord
280
     1
102
MATERIAL
148
0.0
149
0.0
149
0.0
 93
        0
 94
      127
282
     0
 72
     1
 77
     1
171
     1
175
     1
179
     1
273
     0
  0
XRECORD
  5
47B
102
{ACAD_REACTORS
330
47A
102
}
330
47A
100
AcDbXrecord
280
     1
102
MATERIAL
148
0.0
149
0.0
149
0.0
 93
        0
 94
      127
282
     0
 72
     1
 77
     1
171
     1
175
     1
179
     1
273
     0
  0
XRECORD
  5
47F
102
{ACAD_REACTORS
330
47E
102
}
330
47E
100
AcDbXrecord
280
     1
102
MATERIAL
148
0.0
149
0.0
149
0.0
 93
        0
 94
      127
282
     0
 72
     1
 77
     1
171
     1
175
     1
179
     1
273
     0
  0
XRECORD
  5
548
102
{ACAD_REACTORS
330
547
102
}
330
547
100
AcDbXrecord
280
     1
102
DISPLAYNAME
  1
Metric50
102
FLAGS
 90
        0
  0
CELLSTYLEMAP
  5
511
102
{ACAD_REACTORS
330
510
102
}
330
510
100
AcDbCellStyleMap
 90
        3
300
CELLSTYLE
  1
TABLEFORMAT_BEGIN
 90
        5
170
     1
 91
        0
 92
    32768
 62
   257
 93
        1
300
CONTENTFORMAT
  1
CONTENTFORMAT_BEGIN
 90
        0
 91
        0
 92
      512
 93
        0
300

 40
0.0
140
1.0
 94
        5
 62
     0
340
11
144
6.0
309
CONTENTFORMAT_END
171
     1
301
MARGIN
  1
CELLMARGIN_BEGIN
 40
1.5
 40
1.5
 40
1.5
 40
1.5
 40
4.5
 40
4.5
309
CELLMARGIN_END
 94
        6
 95
        1
302
GRIDFORMAT
  1
GRIDFORMAT_BEGIN
 90
        0
 91
        1
 62
     0
 92
       -2
340
0
 93
        0
 40
1.125
309
GRIDFORMAT_END
 95
        2
302
GRIDFORMAT
  1
GRIDFORMAT_BEGIN
 90
        0
 91
        1
 62
     0
 92
       -2
340
0
 93
        0
 40
1.125
309
GRIDFORMAT_END
 95
        4
302
GRIDFORMAT
  1
GRIDFORMAT_BEGIN
 90
        0
 91
        1
 62
     0
 92
       -2
340
0
 93
        0
 40
1.125
309
GRIDFORMAT_END
 95
        8
302
GRIDFORMAT
  1
GRIDFORMAT_BEGIN
 90
        0
 91
        1
 62
     0
 92
       -2
340
0
 93
        0
 40
1.125
309
GRIDFORMAT_END
 95
       16
302
GRIDFORMAT
  1
GRIDFORMAT_BEGIN
 90
        0
 91
        1
 62
     0
 92
       -2
340
0
 93
        0
 40
1.125
309
GRIDFORMAT_END
 95
       32
302
GRIDFORMAT
  1
GRIDFORMAT_BEGIN
 90
        0
 91
        1
 62
     0
 92
       -2
340
0
 93
        0
 40
1.125
309
GRIDFORMAT_END
309
TABLEFORMAT_END
  1
CELLSTYLE_BEGIN
 90
        1
 91
        1
300
_TITLE
309
CELLSTYLE_END
300
CELLSTYLE
  1
TABLEFORMAT_BEGIN
 90
        5
170
     1
 91
        0
 92
        0
 62
   257
 93
        1
300
CONTENTFORMAT
  1
CONTENTFORMAT_BEGIN
 90
        0
 91
        0
 92
      512
 93
        0
300

 40
0.0
140
1.0
 94
        5
 62
     0
340
11
144
4.5
309
CONTENTFORMAT_END
171
     1
301
MARGIN
  1
CELLMARGIN_BEGIN
 40
1.5
 40
1.5
 40
1.5
 40
1.5
 40
4.5
 40
4.5
309
CELLMARGIN_END
 94
        6
 95
        1
302
GRIDFORMAT
  1
GRIDFORMAT_BEGIN
 90
        0
 91
        1
 62
     0
 92
       -2
340
0
 93
        0
 40
1.125
309
GRIDFORMAT_END
 95
        2
302
GRIDFORMAT
  1
GRIDFORMAT_BEGIN
 90
        0
 91
        1
 62
     0
 92
       -2
340
0
 93
        0
 40
1.125
309
GRIDFORMAT_END
 95
        4
302
GRIDFORMAT
  1
GRIDFORMAT_BEGIN
 90
        0
 91
        1
 62
     0
 92
       -2
340
0
 93
        0
 40
1.125
309
GRIDFORMAT_END
 95
        8
302
GRIDFORMAT
  1
GRIDFORMAT_BEGIN
 90
        0
 91
        1
 62
     0
 92
       -2
340
0
 93
        0
 40
1.125
309
GRIDFORMAT_END
 95
       16
302
GRIDFORMAT
  1
GRIDFORMAT_BEGIN
 90
        0
 91
        1
 62
     0
 92
       -2
340
0
 93
        0
 40
1.125
309
GRIDFORMAT_END
 95
       32
302
GRIDFORMAT
  1
GRIDFORMAT_BEGIN
 90
        0
 91
        1
 62
     0
 92
       -2
340
0
 93
        0
 40
1.125
309
GRIDFORMAT_END
309
TABLEFORMAT_END
  1
CELLSTYLE_BEGIN
 90
        2
 91
        1
300
_HEADER
309
CELLSTYLE_END
300
CELLSTYLE
  1
TABLEFORMAT_BEGIN
 90
        5
170
     1
 91
        0
 92
        0
 62
   257
 93
        1
300
CONTENTFORMAT
  1
CONTENTFORMAT_BEGIN
 90
        0
 91
        0
 92
      512
 93
        0
300

 40
0.0
140
1.0
 94
        2
 62
     0
340
11
144
4.5
309
CONTENTFORMAT_END
171
     1
301
MARGIN
  1
CELLMARGIN_BEGIN
 40
1.5
 40
1.5
 40
1.5
 40
1.5
 40
4.5
 40
4.5
309
CELLMARGIN_END
 94
        6
 95
        1
302
GRIDFORMAT
  1
GRIDFORMAT_BEGIN
 90
        0
 91
        1
 62
     0
 92
       -2
340
0
 93
        0
 40
1.125
309
GRIDFORMAT_END
 95
        2
302
GRIDFORMAT
  1
GRIDFORMAT_BEGIN
 90
        0
 91
        1
 62
     0
 92
       -2
340
0
 93
        0
 40
1.125
309
GRIDFORMAT_END
 95
        4
302
GRIDFORMAT
  1
GRIDFORMAT_BEGIN
 90
        0
 91
        1
 62
     0
 92
       -2
340
0
 93
        0
 40
1.125
309
GRIDFORMAT_END
 95
        8
302
GRIDFORMAT
  1
GRIDFORMAT_BEGIN
 90
        0
 91
        1
 62
     0
 92
       -2
340
0
 93
        0
 40
1.125
309
GRIDFORMAT_END
 95
       16
302
GRIDFORMAT
  1
GRIDFORMAT_BEGIN
 90
        0
 91
        1
 62
     0
 92
       -2
340
0
 93
        0
 40
1.125
309
GRIDFORMAT_END
 95
       32
302
GRIDFORMAT
  1
GRIDFORMAT_BEGIN
 90
        0
 91
        1
 62
     0
 92
       -2
340
0
 93
        0
 40
1.125
309
GRIDFORMAT_END
309
TABLEFORMAT_END
  1
CELLSTYLE_BEGIN
 90
        3
 91
        2
300
_DATA
309
CELLSTYLE_END
  0
XRECORD
  5
51C
102
{ACAD_REACTORS
330
51B
102
}
330
51B
100
AcDbXrecord
280
     1
102
RTVSPost2010Prop28
280
     1
102
RTVSPost2010PropOp28
 70
     1
102
RTVSPost2010Prop29
280
     1
102
RTVSPost2010PropOp29
 70
     1
102
RTVSPost2010Prop30
280
     0
102
RTVSPost2010PropOp30
 70
     1
102
RTVSPost2010Prop31
280
     0
102
RTVSPost2010PropOp31
 70
     1
102
RTVSPost2010Prop32
280
     0
102
RTVSPost2010PropOp32
 70
     1
102
RTVSPost2010Prop33
280
     0
102
RTVSPost2010PropOp33
 70
     1
102
RTVSPost2010Prop34
280
     0
102
RTVSPost2010PropOp34
 70
     1
102
RTVSPost2010Prop35
280
     0
102
RTVSPost2010PropOp35
 70
     1
102
RTVSPost2010Prop36
280
     0
102
RTVSPost2010PropOp36
 70
     1
102
RTVSPost2010Prop37
 90
       50
102
RTVSPost2010PropOp37
 70
     1
102
RTVSPost2010Prop38
140
0.0
102
RTVSPost2010PropOp38
 70
     1
102
RTVSPost2010Prop39
140
1.0
102
RTVSPost2010PropOp39
 70
     1
102
RTVSPost2010Prop40
 90
        0
102
RTVSPost2010PropOp40
 70
     1
102
RTVSPost2010Prop41ColorIndex
 90
       18
102
RTVSPost2010Prop41ColorRGB
 90
        0
102
RTVSPost2010PropOp41
 70
     1
102
RTVSPost2010Prop42
 90
       50
102
RTVSPost2010PropOp42
 70
     1
102
RTVSPost2010Prop43
 90
        3
102
RTVSPost2010PropOp43
 70
     1
102
RTVSPost2010Prop44ColorIndex
 90
        5
102
RTVSPost2010Prop44ColorRGB
 90
      255
102
RTVSPost2010PropOp44
 70
     1
102
RTVSPost2010Prop45
280
     0
102
RTVSPost2010PropOp45
 70
     1
102
RTVSPost2010Prop46
 90
       50
102
RTVSPost2010PropOp46
 70
     1
102
RTVSPost2010Prop47
 90
       50
102
RTVSPost2010PropOp47
 70
     1
102
RTVSPost2010Prop48
 90
       50
102
RTVSPost2010PropOp48
 70
     1
102
RTVSPost2010Prop49
280
     0
102
RTVSPost2010PropOp49
 70
     1
102
RTVSPost2010Prop50
 90
       50
102
RTVSPost2010PropOp50
 70
     1
102
RTVSPost2010Prop51ColorIndex
 90
      256
102
RTVSPost2010Prop51ColorRGB
 90
-16777216
102
RTVSPost2010PropOp51
 70
     0
102
RTVSPost2010Prop52
140
1.0
102
RTVSPost2010PropOp52
 70
     0
102
RTVSPost2010Prop53
 90
        2
102
RTVSPost2010PropOp53
 70
     1
102
RTVSPost2010Prop54
  1
strokes_ogs.tif
102
RTVSPost2010PropOp54
 70
     1
102
RTVSPost2010Prop55
280
     0
102
RTVSPost2010PropOp55
 70
     1
102
RTVSPost2010Prop56
140
1.0
102
RTVSPost2010PropOp56
 70
     1
102
RTVSPost2010Prop57
140
1.0
102
RTVSPost2010PropOp57
 70
     1
  0
XRECORD
  5
520
102
{ACAD_REACTORS
330
51F
102
}
330
51F
100
AcDbXrecord
280
     1
102
RTVSPost2010Prop28
280
     0
102
RTVSPost2010PropOp28
 70
     1
102
RTVSPost2010Prop29
280
     1
102
RTVSPost2010PropOp29
 70
     1
102
RTVSPost2010Prop30
280
     1
102
RTVSPost2010PropOp30
 70
     1
102
RTVSPost2010Prop31
280
     0
102
RTVSPost2010PropOp31
 70
     1
102
RTVSPost2010Prop32
280
     0
102
RTVSPost2010PropOp32
 70
     1
102
RTVSPost2010Prop33
280
     0
102
RTVSPost2010PropOp33
 70
     1
102
RTVSPost2010Prop34
280
     0
102
RTVSPost2010PropOp34
 70
     1
102
RTVSPost2010Prop35
280
     0
102
RTVSPost2010PropOp35
 70
     1
102
RTVSPost2010Prop36
280
     0
102
RTVSPost2010PropOp36
 70
     1
102
RTVSPost2010Prop37
 90
       50
102
RTVSPost2010PropOp37
 70
     1
102
RTVSPost2010Prop38
140
0.0
102
RTVSPost2010PropOp38
 70
     1
102
RTVSPost2010Prop39
140
1.0
102
RTVSPost2010PropOp39
 70
     1
102
RTVSPost2010Prop40
 90
        0
102
RTVSPost2010PropOp40
 70
     1
102
RTVSPost2010Prop41ColorIndex
 90
       18
102
RTVSPost2010Prop41ColorRGB
 90
        0
102
RTVSPost2010PropOp41
 70
     1
102
RTVSPost2010Prop42
 90
       50
102
RTVSPost2010PropOp42
 70
     1
102
RTVSPost2010Prop43
 90
        3
102
RTVSPost2010PropOp43
 70
     1
102
RTVSPost2010Prop44ColorIndex
 90
        5
102
RTVSPost2010Prop44ColorRGB
 90
      255
102
RTVSPost2010PropOp44
 70
     1
102
RTVSPost2010Prop45
280
     0
102
RTVSPost2010PropOp45
 70
     1
102
RTVSPost2010Prop46
 90
       50
102
RTVSPost2010PropOp46
 70
     1
102
RTVSPost2010Prop47
 90
       50
102
RTVSPost2010PropOp47
 70
     1
102
RTVSPost2010Prop48
 90
       50
102
RTVSPost2010PropOp48
 70
     1
102
RTVSPost2010Prop49
280
     0
102
RTVSPost2010PropOp49
 70
     1
102
RTVSPost2010Prop50
 90
       50
102
RTVSPost2010PropOp50
 70
     1
102
RTVSPost2010Prop51ColorIndex
 90
      256
102
RTVSPost2010Prop51ColorRGB
 90
-16777216
102
RTVSPost2010PropOp51
 70
     0
102
RTVSPost2010Prop52
140
1.0
102
RTVSPost2010PropOp52
 70
     0
102
RTVSPost2010Prop53
 90
        2
102
RTVSPost2010PropOp53
 70
     1
102
RTVSPost2010Prop54
  1
strokes_ogs.tif
102
RTVSPost2010PropOp54
 70
     1
102
RTVSPost2010Prop55
280
     0
102
RTVSPost2010PropOp55
 70
     1
102
RTVSPost2010Prop56
140
1.0
102
RTVSPost2010PropOp56
 70
     1
102
RTVSPost2010Prop57
140
1.0
102
RTVSPost2010PropOp57
 70
     1
  0
XRECORD
  5
51E
102
{ACAD_REACTORS
330
51D
102
}
330
51D
100
AcDbXrecord
280
     1
102
RTVSPost2010Prop28
280
     0
102
RTVSPost2010PropOp28
 70
     1
102
RTVSPost2010Prop29
280
     1
102
RTVSPost2010PropOp29
 70
     1
102
RTVSPost2010Prop30
280
     1
102
RTVSPost2010PropOp30
 70
     1
102
RTVSPost2010Prop31
280
     0
102
RTVSPost2010PropOp31
 70
     1
102
RTVSPost2010Prop32
280
     0
102
RTVSPost2010PropOp32
 70
     1
102
RTVSPost2010Prop33
280
     0
102
RTVSPost2010PropOp33
 70
     1
102
RTVSPost2010Prop34
280
     0
102
RTVSPost2010PropOp34
 70
     1
102
RTVSPost2010Prop35
280
     0
102
RTVSPost2010PropOp35
 70
     1
102
RTVSPost2010Prop36
280
     0
102
RTVSPost2010PropOp36
 70
     1
102
RTVSPost2010Prop37
 90
       50
102
RTVSPost2010PropOp37
 70
     1
102
RTVSPost2010Prop38
140
0.0
102
RTVSPost2010PropOp38
 70
     1
102
RTVSPost2010Prop39
140
1.0
102
RTVSPost2010PropOp39
 70
     1
102
RTVSPost2010Prop40
 90
        0
102
RTVSPost2010PropOp40
 70
     1
102
RTVSPost2010Prop41ColorIndex
 90
       18
102
RTVSPost2010Prop41ColorRGB
 90
        0
102
RTVSPost2010PropOp41
 70
     1
102
RTVSPost2010Prop42
 90
       50
102
RTVSPost2010PropOp42
 70
     1
102
RTVSPost2010Prop43
 90
        3
102
RTVSPost2010PropOp43
 70
     1
102
RTVSPost2010Prop44ColorIndex
 90
        5
102
RTVSPost2010Prop44ColorRGB
 90
      255
102
RTVSPost2010PropOp44
 70
     1
102
RTVSPost2010Prop45
280
     0
102
RTVSPost2010PropOp45
 70
     1
102
RTVSPost2010Prop46
 90
       50
102
RTVSPost2010PropOp46
 70
     1
102
RTVSPost2010Prop47
 90
       50
102
RTVSPost2010PropOp47
 70
     1
102
RTVSPost2010Prop48
 90
       50
102
RTVSPost2010PropOp48
 70
     1
102
RTVSPost2010Prop49
280
     0
102
RTVSPost2010PropOp49
 70
     1
102
RTVSPost2010Prop50
 90
       50
102
RTVSPost2010PropOp50
 70
     1
102
RTVSPost2010Prop51ColorIndex
 90
      256
102
RTVSPost2010Prop51ColorRGB
 90
-16777216
102
RTVSPost2010PropOp51
 70
     0
102
RTVSPost2010Prop52
140
1.0
102
RTVSPost2010PropOp52
 70
     0
102
RTVSPost2010Prop53
 90
        2
102
RTVSPost2010PropOp53
 70
     1
102
RTVSPost2010Prop54
  1
strokes_ogs.tif
102
RTVSPost2010PropOp54
 70
     1
102
RTVSPost2010Prop55
280
     0
102
RTVSPost2010PropOp55
 70
     1
102
RTVSPost2010Prop56
140
1.0
102
RTVSPost2010PropOp56
 70
     1
102
RTVSPost2010Prop57
140
1.0
102
RTVSPost2010PropOp57
 70
     1
  0
XRECORD
  5
522
102
{ACAD_REACTORS
330
521
102
}
330
521
100
AcDbXrecord
280
     1
102
RTVSPost2010Prop28
280
     0
102
RTVSPost2010PropOp28
 70
     1
102
RTVSPost2010Prop29
280
     1
102
RTVSPost2010PropOp29
 70
     1
102
RTVSPost2010Prop30
280
     1
102
RTVSPost2010PropOp30
 70
     1
102
RTVSPost2010Prop31
280
     0
102
RTVSPost2010PropOp31
 70
     1
102
RTVSPost2010Prop32
280
     0
102
RTVSPost2010PropOp32
 70
     1
102
RTVSPost2010Prop33
280
     0
102
RTVSPost2010PropOp33
 70
     1
102
RTVSPost2010Prop34
280
     0
102
RTVSPost2010PropOp34
 70
     1
102
RTVSPost2010Prop35
280
     0
102
RTVSPost2010PropOp35
 70
     1
102
RTVSPost2010Prop36
280
     0
102
RTVSPost2010PropOp36
 70
     1
102
RTVSPost2010Prop37
 90
       50
102
RTVSPost2010PropOp37
 70
     1
102
RTVSPost2010Prop38
140
0.0
102
RTVSPost2010PropOp38
 70
     1
102
RTVSPost2010Prop39
140
1.0
102
RTVSPost2010PropOp39
 70
     1
102
RTVSPost2010Prop40
 90
        0
102
RTVSPost2010PropOp40
 70
     1
102
RTVSPost2010Prop41ColorIndex
 90
       18
102
RTVSPost2010Prop41ColorRGB
 90
        0
102
RTVSPost2010PropOp41
 70
     1
102
RTVSPost2010Prop42
 90
       50
102
RTVSPost2010PropOp42
 70
     1
102
RTVSPost2010Prop43
 90
        3
102
RTVSPost2010PropOp43
 70
     1
102
RTVSPost2010Prop44ColorIndex
 90
        5
102
RTVSPost2010Prop44ColorRGB
 90
      255
102
RTVSPost2010PropOp44
 70
     1
102
RTVSPost2010Prop45
280
     0
102
RTVSPost2010PropOp45
 70
     1
102
RTVSPost2010Prop46
 90
       50
102
RTVSPost2010PropOp46
 70
     1
102
RTVSPost2010Prop47
 90
       50
102
RTVSPost2010PropOp47
 70
     1
102
RTVSPost2010Prop48
 90
       50
102
RTVSPost2010PropOp48
 70
     1
102
RTVSPost2010Prop49
280
     0
102
RTVSPost2010PropOp49
 70
     1
102
RTVSPost2010Prop50
 90
       50
102
RTVSPost2010PropOp50
 70
     1
102
RTVSPost2010Prop51ColorIndex
 90
      256
102
RTVSPost2010Prop51ColorRGB
 90
-16777216
102
RTVSPost2010PropOp51
 70
     0
102
RTVSPost2010Prop52
140
1.0
102
RTVSPost2010PropOp52
 70
     0
102
RTVSPost2010Prop53
 90
        2
102
RTVSPost2010PropOp53
 70
     1
102
RTVSPost2010Prop54
  1
strokes_ogs.tif
102
RTVSPost2010PropOp54
 70
     1
102
RTVSPost2010Prop55
280
     0
102
RTVSPost2010PropOp55
 70
     1
102
RTVSPost2010Prop56
140
1.0
102
RTVSPost2010PropOp56
 70
     1
102
RTVSPost2010Prop57
140
1.0
102
RTVSPost2010PropOp57
 70
     1
  0
XRECORD
  5
52A
102
{ACAD_REACTORS
330
529
102
}
330
529
100
AcDbXrecord
280
     1
102
RTVSPost2010Prop28
280
     0
102
RTVSPost2010PropOp28
 70
     1
102
RTVSPost2010Prop29
280
     1
102
RTVSPost2010PropOp29
 70
     1
102
RTVSPost2010Prop30
280
     1
102
RTVSPost2010PropOp30
 70
     1
102
RTVSPost2010Prop31
280
     0
102
RTVSPost2010PropOp31
 70
     1
102
RTVSPost2010Prop32
280
     0
102
RTVSPost2010PropOp32
 70
     1
102
RTVSPost2010Prop33
280
     0
102
RTVSPost2010PropOp33
 70
     1
102
RTVSPost2010Prop34
280
     0
102
RTVSPost2010PropOp34
 70
     1
102
RTVSPost2010Prop35
280
     0
102
RTVSPost2010PropOp35
 70
     1
102
RTVSPost2010Prop36
280
     0
102
RTVSPost2010PropOp36
 70
     1
102
RTVSPost2010Prop37
 90
       50
102
RTVSPost2010PropOp37
 70
     1
102
RTVSPost2010Prop38
140
0.0
102
RTVSPost2010PropOp38
 70
     1
102
RTVSPost2010Prop39
140
1.0
102
RTVSPost2010PropOp39
 70
     1
102
RTVSPost2010Prop40
 90
        0
102
RTVSPost2010PropOp40
 70
     1
102
RTVSPost2010Prop41ColorIndex
 90
       18
102
RTVSPost2010Prop41ColorRGB
 90
        0
102
RTVSPost2010PropOp41
 70
     1
102
RTVSPost2010Prop42
 90
       50
102
RTVSPost2010PropOp42
 70
     1
102
RTVSPost2010Prop43
 90
        3
102
RTVSPost2010PropOp43
 70
     1
102
RTVSPost2010Prop44ColorIndex
 90
        5
102
RTVSPost2010Prop44ColorRGB
 90
      255
102
RTVSPost2010PropOp44
 70
     1
102
RTVSPost2010Prop45
280
     0
102
RTVSPost2010PropOp45
 70
     1
102
RTVSPost2010Prop46
 90
       50
102
RTVSPost2010PropOp46
 70
     1
102
RTVSPost2010Prop47
 90
       50
102
RTVSPost2010PropOp47
 70
     1
102
RTVSPost2010Prop48
 90
       50
102
RTVSPost2010PropOp48
 70
     1
102
RTVSPost2010Prop49
280
     0
102
RTVSPost2010PropOp49
 70
     1
102
RTVSPost2010Prop50
 90
       50
102
RTVSPost2010PropOp50
 70
     1
102
RTVSPost2010Prop51ColorIndex
 90
      256
102
RTVSPost2010Prop51ColorRGB
 90
-16777216
102
RTVSPost2010PropOp51
 70
     0
102
RTVSPost2010Prop52
140
1.0
102
RTVSPost2010PropOp52
 70
     0
102
RTVSPost2010Prop53
 90
        2
102
RTVSPost2010PropOp53
 70
     1
102
RTVSPost2010Prop54
  1
strokes_ogs.tif
102
RTVSPost2010PropOp54
 70
     1
102
RTVSPost2010Prop55
280
     0
102
RTVSPost2010PropOp55
 70
     1
102
RTVSPost2010Prop56
140
1.0
102
RTVSPost2010PropOp56
 70
     1
102
RTVSPost2010Prop57
140
1.0
102
RTVSPost2010PropOp57
 70
     1
  0
XRECORD
  5
532
102
{ACAD_REACTORS
330
531
102
}
330
531
100
AcDbXrecord
280
     1
102
RTVSPost2010Prop28
280
     0
102
RTVSPost2010PropOp28
 70
     1
102
RTVSPost2010Prop29
280
     1
102
RTVSPost2010PropOp29
 70
     1
102
RTVSPost2010Prop30
280
     1
102
RTVSPost2010PropOp30
 70
     1
102
RTVSPost2010Prop31
280
     0
102
RTVSPost2010PropOp31
 70
     1
102
RTVSPost2010Prop32
280
     0
102
RTVSPost2010PropOp32
 70
     1
102
RTVSPost2010Prop33
280
     0
102
RTVSPost2010PropOp33
 70
     1
102
RTVSPost2010Prop34
280
     0
102
RTVSPost2010PropOp34
 70
     1
102
RTVSPost2010Prop35
280
     0
102
RTVSPost2010PropOp35
 70
     1
102
RTVSPost2010Prop36
280
     0
102
RTVSPost2010PropOp36
 70
     1
102
RTVSPost2010Prop37
 90
       50
102
RTVSPost2010PropOp37
 70
     1
102
RTVSPost2010Prop38
140
0.0
102
RTVSPost2010PropOp38
 70
     1
102
RTVSPost2010Prop39
140
1.0
102
RTVSPost2010PropOp39
 70
     1
102
RTVSPost2010Prop40
 90
        0
102
RTVSPost2010PropOp40
 70
     1
102
RTVSPost2010Prop41ColorIndex
 90
       18
102
RTVSPost2010Prop41ColorRGB
 90
        0
102
RTVSPost2010PropOp41
 70
     1
102
RTVSPost2010Prop42
 90
       50
102
RTVSPost2010PropOp42
 70
     1
102
RTVSPost2010Prop43
 90
        3
102
RTVSPost2010PropOp43
 70
     1
102
RTVSPost2010Prop44ColorIndex
 90
        5
102
RTVSPost2010Prop44ColorRGB
 90
      255
102
RTVSPost2010PropOp44
 70
     1
102
RTVSPost2010Prop45
280
     0
102
RTVSPost2010PropOp45
 70
     1
102
RTVSPost2010Prop46
 90
       50
102
RTVSPost2010PropOp46
 70
     1
102
RTVSPost2010Prop47
 90
       50
102
RTVSPost2010PropOp47
 70
     1
102
RTVSPost2010Prop48
 90
       50
102
RTVSPost2010PropOp48
 70
     1
102
RTVSPost2010Prop49
280
     0
102
RTVSPost2010PropOp49
 70
     1
102
RTVSPost2010Prop50
 90
       50
102
RTVSPost2010PropOp50
 70
     1
102
RTVSPost2010Prop51ColorIndex
 90
      256
102
RTVSPost2010Prop51ColorRGB
 90
-16777216
102
RTVSPost2010PropOp51
 70
     0
102
RTVSPost2010Prop52
140
1.0
102
RTVSPost2010PropOp52
 70
     0
102
RTVSPost2010Prop53
 90
        2
102
RTVSPost2010PropOp53
 70
     1
102
RTVSPost2010Prop54
  1
strokes_ogs.tif
102
RTVSPost2010PropOp54
 70
     1
102
RTVSPost2010Prop55
280
     0
102
RTVSPost2010PropOp55
 70
     1
102
RTVSPost2010Prop56
140
1.0
102
RTVSPost2010PropOp56
 70
     1
102
RTVSPost2010Prop57
140
1.0
102
RTVSPost2010PropOp57
 70
     1
  0
XRECORD
  5
526
102
{ACAD_REACTORS
330
525
102
}
330
525
100
AcDbXrecord
280
     1
102
RTVSPost2010Prop28
280
     0
102
RTVSPost2010PropOp28
 70
     1
102
RTVSPost2010Prop29
280
     1
102
RTVSPost2010PropOp29
 70
     1
102
RTVSPost2010Prop30
280
     1
102
RTVSPost2010PropOp30
 70
     1
102
RTVSPost2010Prop31
280
     0
102
RTVSPost2010PropOp31
 70
     1
102
RTVSPost2010Prop32
280
     0
102
RTVSPost2010PropOp32
 70
     1
102
RTVSPost2010Prop33
280
     0
102
RTVSPost2010PropOp33
 70
     1
102
RTVSPost2010Prop34
280
     0
102
RTVSPost2010PropOp34
 70
     1
102
RTVSPost2010Prop35
280
     0
102
RTVSPost2010PropOp35
 70
     1
102
RTVSPost2010Prop36
280
     0
102
RTVSPost2010PropOp36
 70
     1
102
RTVSPost2010Prop37
 90
       50
102
RTVSPost2010PropOp37
 70
     1
102
RTVSPost2010Prop38
140
0.0
102
RTVSPost2010PropOp38
 70
     1
102
RTVSPost2010Prop39
140
1.0
102
RTVSPost2010PropOp39
 70
     1
102
RTVSPost2010Prop40
 90
        0
102
RTVSPost2010PropOp40
 70
     1
102
RTVSPost2010Prop41ColorIndex
 90
       18
102
RTVSPost2010Prop41ColorRGB
 90
        0
102
RTVSPost2010PropOp41
 70
     1
102
RTVSPost2010Prop42
 90
       50
102
RTVSPost2010PropOp42
 70
     1
102
RTVSPost2010Prop43
 90
        3
102
RTVSPost2010PropOp43
 70
     1
102
RTVSPost2010Prop44ColorIndex
 90
        5
102
RTVSPost2010Prop44ColorRGB
 90
      255
102
RTVSPost2010PropOp44
 70
     1
102
RTVSPost2010Prop45
280
     0
102
RTVSPost2010PropOp45
 70
     1
102
RTVSPost2010Prop46
 90
       50
102
RTVSPost2010PropOp46
 70
     1
102
RTVSPost2010Prop47
 90
       50
102
RTVSPost2010PropOp47
 70
     1
102
RTVSPost2010Prop48
 90
       50
102
RTVSPost2010PropOp48
 70
     1
102
RTVSPost2010Prop49
280
     0
102
RTVSPost2010PropOp49
 70
     1
102
RTVSPost2010Prop50
 90
       50
102
RTVSPost2010PropOp50
 70
     1
102
RTVSPost2010Prop51ColorIndex
 90
      256
102
RTVSPost2010Prop51ColorRGB
 90
-16777216
102
RTVSPost2010PropOp51
 70
     0
102
RTVSPost2010Prop52
140
1.0
102
RTVSPost2010PropOp52
 70
     0
102
RTVSPost2010Prop53
 90
        2
102
RTVSPost2010PropOp53
 70
     1
102
RTVSPost2010Prop54
  1
strokes_ogs.tif
102
RTVSPost2010PropOp54
 70
     1
102
RTVSPost2010Prop55
280
     0
102
RTVSPost2010PropOp55
 70
     1
102
RTVSPost2010Prop56
140
1.0
102
RTVSPost2010PropOp56
 70
     1
102
RTVSPost2010Prop57
140
1.0
102
RTVSPost2010PropOp57
 70
     1
  0
XRECORD
  5
528
102
{ACAD_REACTORS
330
527
102
}
330
527
100
AcDbXrecord
280
     1
102
RTVSPost2010Prop28
280
     0
102
RTVSPost2010PropOp28
 70
     1
102
RTVSPost2010Prop29
280
     1
102
RTVSPost2010PropOp29
 70
     1
102
RTVSPost2010Prop30
280
     1
102
RTVSPost2010PropOp30
 70
     1
102
RTVSPost2010Prop31
280
     0
102
RTVSPost2010PropOp31
 70
     1
102
RTVSPost2010Prop32
280
     0
102
RTVSPost2010PropOp32
 70
     1
102
RTVSPost2010Prop33
280
     0
102
RTVSPost2010PropOp33
 70
     1
102
RTVSPost2010Prop34
280
     0
102
RTVSPost2010PropOp34
 70
     1
102
RTVSPost2010Prop35
280
     0
102
RTVSPost2010PropOp35
 70
     1
102
RTVSPost2010Prop36
280
     0
102
RTVSPost2010PropOp36
 70
     1
102
RTVSPost2010Prop37
 90
       50
102
RTVSPost2010PropOp37
 70
     1
102
RTVSPost2010Prop38
140
0.0
102
RTVSPost2010PropOp38
 70
     1
102
RTVSPost2010Prop39
140
1.0
102
RTVSPost2010PropOp39
 70
     1
102
RTVSPost2010Prop40
 90
        0
102
RTVSPost2010PropOp40
 70
     1
102
RTVSPost2010Prop41ColorIndex
 90
       18
102
RTVSPost2010Prop41ColorRGB
 90
        0
102
RTVSPost2010PropOp41
 70
     1
102
RTVSPost2010Prop42
 90
       50
102
RTVSPost2010PropOp42
 70
     1
102
RTVSPost2010Prop43
 90
        3
102
RTVSPost2010PropOp43
 70
     1
102
RTVSPost2010Prop44ColorIndex
 90
        5
102
RTVSPost2010Prop44ColorRGB
 90
      255
102
RTVSPost2010PropOp44
 70
     1
102
RTVSPost2010Prop45
280
     0
102
RTVSPost2010PropOp45
 70
     1
102
RTVSPost2010Prop46
 90
       50
102
RTVSPost2010PropOp46
 70
     1
102
RTVSPost2010Prop47
 90
       50
102
RTVSPost2010PropOp47
 70
     1
102
RTVSPost2010Prop48
 90
       50
102
RTVSPost2010PropOp48
 70
     1
102
RTVSPost2010Prop49
280
     0
102
RTVSPost2010PropOp49
 70
     1
102
RTVSPost2010Prop50
 90
       50
102
RTVSPost2010PropOp50
 70
     1
102
RTVSPost2010Prop51ColorIndex
 90
      256
102
RTVSPost2010Prop51ColorRGB
 90
-16777216
102
RTVSPost2010PropOp51
 70
     0
102
RTVSPost2010Prop52
140
1.0
102
RTVSPost2010PropOp52
 70
     0
102
RTVSPost2010Prop53
 90
        2
102
RTVSPost2010PropOp53
 70
     1
102
RTVSPost2010Prop54
  1
strokes_ogs.tif
102
RTVSPost2010PropOp54
 70
     1
102
RTVSPost2010Prop55
280
     0
102
RTVSPost2010PropOp55
 70
     1
102
RTVSPost2010Prop56
140
1.0
102
RTVSPost2010PropOp56
 70
     1
102
RTVSPost2010Prop57
140
1.0
102
RTVSPost2010PropOp57
 70
     1
  0
XRECORD
  5
546
102
{ACAD_REACTORS
330
545
102
}
330
545
100
AcDbXrecord
280
     1
102
RTVSPost2010Prop28
280
     0
102
RTVSPost2010PropOp28
 70
     1
102
RTVSPost2010Prop29
280
     1
102
RTVSPost2010PropOp29
 70
     1
102
RTVSPost2010Prop30
280
     1
102
RTVSPost2010PropOp30
 70
     1
102
RTVSPost2010Prop31
280
     0
102
RTVSPost2010PropOp31
 70
     1
102
RTVSPost2010Prop32
280
     0
102
RTVSPost2010PropOp32
 70
     1
102
RTVSPost2010Prop33
280
     0
102
RTVSPost2010PropOp33
 70
     1
102
RTVSPost2010Prop34
280
     0
102
RTVSPost2010PropOp34
 70
     1
102
RTVSPost2010Prop35
280
     0
102
RTVSPost2010PropOp35
 70
     1
102
RTVSPost2010Prop36
280
     0
102
RTVSPost2010PropOp36
 70
     1
102
RTVSPost2010Prop37
 90
       50
102
RTVSPost2010PropOp37
 70
     0
102
RTVSPost2010Prop38
140
0.0
102
RTVSPost2010PropOp38
 70
     0
102
RTVSPost2010Prop39
140
1.0
102
RTVSPost2010PropOp39
 70
     0
102
RTVSPost2010Prop40
 90
        0
102
RTVSPost2010PropOp40
 70
     0
102
RTVSPost2010Prop41ColorIndex
 90
       18
102
RTVSPost2010Prop41ColorRGB
 90
        0
102
RTVSPost2010PropOp41
 70
     0
102
RTVSPost2010Prop42
 90
       50
102
RTVSPost2010PropOp42
 70
     0
102
RTVSPost2010Prop43
 90
        3
102
RTVSPost2010PropOp43
 70
     0
102
RTVSPost2010Prop44ColorIndex
 90
        5
102
RTVSPost2010Prop44ColorRGB
 90
      255
102
RTVSPost2010PropOp44
 70
     0
102
RTVSPost2010Prop45
280
     0
102
RTVSPost2010PropOp45
 70
     1
102
RTVSPost2010Prop46
 90
       50
102
RTVSPost2010PropOp46
 70
     0
102
RTVSPost2010Prop47
 90
       50
102
RTVSPost2010PropOp47
 70
     0
102
RTVSPost2010Prop48
 90
       50
102
RTVSPost2010PropOp48
 70
     0
102
RTVSPost2010Prop49
280
     0
102
RTVSPost2010PropOp49
 70
     1
102
RTVSPost2010Prop50
 90
       50
102
RTVSPost2010PropOp50
 70
     0
102
RTVSPost2010Prop51ColorIndex
 90
      256
102
RTVSPost2010Prop51ColorRGB
 90
-16777216
102
RTVSPost2010PropOp51
 70
     0
102
RTVSPost2010Prop52
140
1.0
102
RTVSPost2010PropOp52
 70
     0
102
RTVSPost2010Prop53
 90
        2
102
RTVSPost2010PropOp53
 70
     0
102
RTVSPost2010Prop54
  1
strokes_ogs.tif
102
RTVSPost2010PropOp54
 70
     0
102
RTVSPost2010Prop55
280
     0
102
RTVSPost2010PropOp55
 70
     1
102
RTVSPost2010Prop56
140
1.0
102
RTVSPost2010PropOp56
 70
     0
102
RTVSPost2010Prop57
140
1.0
102
RTVSPost2010PropOp57
 70
     0
  0
XRECORD
  5
530
102
{ACAD_REACTORS
330
52F
102
}
330
52F
100
AcDbXrecord
280
     1
102
RTVSPost2010Prop28
280
     0
102
RTVSPost2010PropOp28
 70
     1
102
RTVSPost2010Prop29
280
     1
102
RTVSPost2010PropOp29
 70
     1
102
RTVSPost2010Prop30
280
     1
102
RTVSPost2010PropOp30
 70
     1
102
RTVSPost2010Prop31
280
     0
102
RTVSPost2010PropOp31
 70
     1
102
RTVSPost2010Prop32
280
     0
102
RTVSPost2010PropOp32
 70
     1
102
RTVSPost2010Prop33
280
     0
102
RTVSPost2010PropOp33
 70
     1
102
RTVSPost2010Prop34
280
     0
102
RTVSPost2010PropOp34
 70
     1
102
RTVSPost2010Prop35
280
     0
102
RTVSPost2010PropOp35
 70
     1
102
RTVSPost2010Prop36
280
     0
102
RTVSPost2010PropOp36
 70
     1
102
RTVSPost2010Prop37
 90
       50
102
RTVSPost2010PropOp37
 70
     1
102
RTVSPost2010Prop38
140
0.0
102
RTVSPost2010PropOp38
 70
     1
102
RTVSPost2010Prop39
140
1.0
102
RTVSPost2010PropOp39
 70
     1
102
RTVSPost2010Prop40
 90
        0
102
RTVSPost2010PropOp40
 70
     1
102
RTVSPost2010Prop41ColorIndex
 90
       18
102
RTVSPost2010Prop41ColorRGB
 90
        0
102
RTVSPost2010PropOp41
 70
     1
102
RTVSPost2010Prop42
 90
       50
102
RTVSPost2010PropOp42
 70
     1
102
RTVSPost2010Prop43
 90
        3
102
RTVSPost2010PropOp43
 70
     1
102
RTVSPost2010Prop44ColorIndex
 90
        5
102
RTVSPost2010Prop44ColorRGB
 90
      255
102
RTVSPost2010PropOp44
 70
     1
102
RTVSPost2010Prop45
280
     0
102
RTVSPost2010PropOp45
 70
     1
102
RTVSPost2010Prop46
 90
       50
102
RTVSPost2010PropOp46
 70
     1
102
RTVSPost2010Prop47
 90
       50
102
RTVSPost2010PropOp47
 70
     1
102
RTVSPost2010Prop48
 90
       50
102
RTVSPost2010PropOp48
 70
     1
102
RTVSPost2010Prop49
280
     0
102
RTVSPost2010PropOp49
 70
     1
102
RTVSPost2010Prop50
 90
       50
102
RTVSPost2010PropOp50
 70
     1
102
RTVSPost2010Prop51ColorIndex
 90
      256
102
RTVSPost2010Prop51ColorRGB
 90
-16777216
102
RTVSPost2010PropOp51
 70
     0
102
RTVSPost2010Prop52
140
1.0
102
RTVSPost2010PropOp52
 70
     0
102
RTVSPost2010Prop53
 90
        2
102
RTVSPost2010PropOp53
 70
     1
102
RTVSPost2010Prop54
  1
strokes_ogs.tif
102
RTVSPost2010PropOp54
 70
     1
102
RTVSPost2010Prop55
280
     0
102
RTVSPost2010PropOp55
 70
     1
102
RTVSPost2010Prop56
140
1.0
102
RTVSPost2010PropOp56
 70
     1
102
RTVSPost2010Prop57
140
1.0
102
RTVSPost2010PropOp57
 70
     1
  0
XRECORD
  5
514
102
{ACAD_REACTORS
330
513
102
}
330
513
100
AcDbXrecord
280
     1
102
RTVSPost2010Prop28
280
     0
102
RTVSPost2010PropOp28
 70
     1
102
RTVSPost2010Prop29
280
     1
102
RTVSPost2010PropOp29
 70
     1
102
RTVSPost2010Prop30
280
     1
102
RTVSPost2010PropOp30
 70
     1
102
RTVSPost2010Prop31
280
     0
102
RTVSPost2010PropOp31
 70
     1
102
RTVSPost2010Prop32
280
     0
102
RTVSPost2010PropOp32
 70
     1
102
RTVSPost2010Prop33
280
     0
102
RTVSPost2010PropOp33
 70
     1
102
RTVSPost2010Prop34
280
     0
102
RTVSPost2010PropOp34
 70
     1
102
RTVSPost2010Prop35
280
     0
102
RTVSPost2010PropOp35
 70
     1
102
RTVSPost2010Prop36
280
     0
102
RTVSPost2010PropOp36
 70
     1
102
RTVSPost2010Prop37
 90
       50
102
RTVSPost2010PropOp37
 70
     1
102
RTVSPost2010Prop38
140
0.0
102
RTVSPost2010PropOp38
 70
     1
102
RTVSPost2010Prop39
140
1.0
102
RTVSPost2010PropOp39
 70
     1
102
RTVSPost2010Prop40
 90
        0
102
RTVSPost2010PropOp40
 70
     1
102
RTVSPost2010Prop41ColorIndex
 90
       18
102
RTVSPost2010Prop41ColorRGB
 90
        0
102
RTVSPost2010PropOp41
 70
     1
102
RTVSPost2010Prop42
 90
       50
102
RTVSPost2010PropOp42
 70
     1
102
RTVSPost2010Prop43
 90
        3
102
RTVSPost2010PropOp43
 70
     1
102
RTVSPost2010Prop44ColorIndex
 90
        5
102
RTVSPost2010Prop44ColorRGB
 90
      255
102
RTVSPost2010PropOp44
 70
     1
102
RTVSPost2010Prop45
280
     0
102
RTVSPost2010PropOp45
 70
     1
102
RTVSPost2010Prop46
 90
       50
102
RTVSPost2010PropOp46
 70
     1
102
RTVSPost2010Prop47
 90
       50
102
RTVSPost2010PropOp47
 70
     1
102
RTVSPost2010Prop48
 90
       50
102
RTVSPost2010PropOp48
 70
     1
102
RTVSPost2010Prop49
280
     0
102
RTVSPost2010PropOp49
 70
     1
102
RTVSPost2010Prop50
 90
       50
102
RTVSPost2010PropOp50
 70
     1
102
RTVSPost2010Prop51ColorIndex
 90
      256
102
RTVSPost2010Prop51ColorRGB
 90
-16777216
102
RTVSPost2010PropOp51
 70
     0
102
RTVSPost2010Prop52
140
1.0
102
RTVSPost2010PropOp52
 70
     0
102
RTVSPost2010Prop53
 90
        2
102
RTVSPost2010PropOp53
 70
     1
102
RTVSPost2010Prop54
  1
strokes_ogs.tif
102
RTVSPost2010PropOp54
 70
     1
102
RTVSPost2010Prop55
280
     0
102
RTVSPost2010PropOp55
 70
     1
102
RTVSPost2010Prop56
140
1.0
102
RTVSPost2010PropOp56
 70
     1
102
RTVSPost2010Prop57
140
1.0
102
RTVSPost2010PropOp57
 70
     1
  0
XRECORD
  5
516
102
{ACAD_REACTORS
330
515
102
}
330
515
100
AcDbXrecord
280
     1
102
RTVSPost2010Prop28
280
     0
102
RTVSPost2010PropOp28
 70
     1
102
RTVSPost2010Prop29
280
     1
102
RTVSPost2010PropOp29
 70
     1
102
RTVSPost2010Prop30
280
     1
102
RTVSPost2010PropOp30
 70
     1
102
RTVSPost2010Prop31
280
     0
102
RTVSPost2010PropOp31
 70
     1
102
RTVSPost2010Prop32
280
     0
102
RTVSPost2010PropOp32
 70
     1
102
RTVSPost2010Prop33
280
     0
102
RTVSPost2010PropOp33
 70
     1
102
RTVSPost2010Prop34
280
     0
102
RTVSPost2010PropOp34
 70
     1
102
RTVSPost2010Prop35
280
     0
102
RTVSPost2010PropOp35
 70
     1
102
RTVSPost2010Prop36
280
     0
102
RTVSPost2010PropOp36
 70
     1
102
RTVSPost2010Prop37
 90
       50
102
RTVSPost2010PropOp37
 70
     1
102
RTVSPost2010Prop38
140
0.0
102
RTVSPost2010PropOp38
 70
     1
102
RTVSPost2010Prop39
140
1.0
102
RTVSPost2010PropOp39
 70
     1
102
RTVSPost2010Prop40
 90
        0
102
RTVSPost2010PropOp40
 70
     1
102
RTVSPost2010Prop41ColorIndex
 90
       18
102
RTVSPost2010Prop41ColorRGB
 90
        0
102
RTVSPost2010PropOp41
 70
     1
102
RTVSPost2010Prop42
 90
       50
102
RTVSPost2010PropOp42
 70
     1
102
RTVSPost2010Prop43
 90
        3
102
RTVSPost2010PropOp43
 70
     1
102
RTVSPost2010Prop44ColorIndex
 90
        5
102
RTVSPost2010Prop44ColorRGB
 90
      255
102
RTVSPost2010PropOp44
 70
     1
102
RTVSPost2010Prop45
280
     0
102
RTVSPost2010PropOp45
 70
     1
102
RTVSPost2010Prop46
 90
       50
102
RTVSPost2010PropOp46
 70
     1
102
RTVSPost2010Prop47
 90
       50
102
RTVSPost2010PropOp47
 70
     1
102
RTVSPost2010Prop48
 90
       50
102
RTVSPost2010PropOp48
 70
     1
102
RTVSPost2010Prop49
280
     0
102
RTVSPost2010PropOp49
 70
     1
102
RTVSPost2010Prop50
 90
       50
102
RTVSPost2010PropOp50
 70
     1
102
RTVSPost2010Prop51ColorIndex
 90
      256
102
RTVSPost2010Prop51ColorRGB
 90
-16777216
102
RTVSPost2010PropOp51
 70
     0
102
RTVSPost2010Prop52
140
1.0
102
RTVSPost2010PropOp52
 70
     0
102
RTVSPost2010Prop53
 90
        2
102
RTVSPost2010PropOp53
 70
     1
102
RTVSPost2010Prop54
  1
strokes_ogs.tif
102
RTVSPost2010PropOp54
 70
     1
102
RTVSPost2010Prop55
280
     0
102
RTVSPost2010PropOp55
 70
     1
102
RTVSPost2010Prop56
140
1.0
102
RTVSPost2010PropOp56
 70
     1
102
RTVSPost2010Prop57
140
1.0
102
RTVSPost2010PropOp57
 70
     1
  0
XRECORD
  5
518
102
{ACAD_REACTORS
330
517
102
}
330
517
100
AcDbXrecord
280
     1
102
RTVSPost2010Prop28
280
     0
102
RTVSPost2010PropOp28
 70
     1
102
RTVSPost2010Prop29
280
     1
102
RTVSPost2010PropOp29
 70
     1
102
RTVSPost2010Prop30
280
     1
102
RTVSPost2010PropOp30
 70
     1
102
RTVSPost2010Prop31
280
     0
102
RTVSPost2010PropOp31
 70
     1
102
RTVSPost2010Prop32
280
     0
102
RTVSPost2010PropOp32
 70
     1
102
RTVSPost2010Prop33
280
     0
102
RTVSPost2010PropOp33
 70
     1
102
RTVSPost2010Prop34
280
     0
102
RTVSPost2010PropOp34
 70
     1
102
RTVSPost2010Prop35
280
     0
102
RTVSPost2010PropOp35
 70
     1
102
RTVSPost2010Prop36
280
     0
102
RTVSPost2010PropOp36
 70
     1
102
RTVSPost2010Prop37
 90
       50
102
RTVSPost2010PropOp37
 70
     1
102
RTVSPost2010Prop38
140
0.0
102
RTVSPost2010PropOp38
 70
     1
102
RTVSPost2010Prop39
140
1.0
102
RTVSPost2010PropOp39
 70
     1
102
RTVSPost2010Prop40
 90
        0
102
RTVSPost2010PropOp40
 70
     1
102
RTVSPost2010Prop41ColorIndex
 90
       18
102
RTVSPost2010Prop41ColorRGB
 90
        0
102
RTVSPost2010PropOp41
 70
     1
102
RTVSPost2010Prop42
 90
       50
102
RTVSPost2010PropOp42
 70
     1
102
RTVSPost2010Prop43
 90
        3
102
RTVSPost2010PropOp43
 70
     1
102
RTVSPost2010Prop44ColorIndex
 90
        5
102
RTVSPost2010Prop44ColorRGB
 90
      255
102
RTVSPost2010PropOp44
 70
     1
102
RTVSPost2010Prop45
280
     0
102
RTVSPost2010PropOp45
 70
     1
102
RTVSPost2010Prop46
 90
       50
102
RTVSPost2010PropOp46
 70
     1
102
RTVSPost2010Prop47
 90
       50
102
RTVSPost2010PropOp47
 70
     1
102
RTVSPost2010Prop48
 90
       50
102
RTVSPost2010PropOp48
 70
     1
102
RTVSPost2010Prop49
280
     0
102
RTVSPost2010PropOp49
 70
     1
102
RTVSPost2010Prop50
 90
       50
102
RTVSPost2010PropOp50
 70
     1
102
RTVSPost2010Prop51ColorIndex
 90
      256
102
RTVSPost2010Prop51ColorRGB
 90
-16777216
102
RTVSPost2010PropOp51
 70
     0
102
RTVSPost2010Prop52
140
1.0
102
RTVSPost2010PropOp52
 70
     0
102
RTVSPost2010Prop53
 90
        2
102
RTVSPost2010PropOp53
 70
     1
102
RTVSPost2010Prop54
  1
strokes_ogs.tif
102
RTVSPost2010PropOp54
 70
     1
102
RTVSPost2010Prop55
280
     0
102
RTVSPost2010PropOp55
 70
     1
102
RTVSPost2010Prop56
140
1.0
102
RTVSPost2010PropOp56
 70
     1
102
RTVSPost2010Prop57
140
1.0
102
RTVSPost2010PropOp57
 70
     1
  0
XRECORD
  5
51A
102
{ACAD_REACTORS
330
519
102
}
330
519
100
AcDbXrecord
280
     1
102
RTVSPost2010Prop28
280
     0
102
RTVSPost2010PropOp28
 70
     1
102
RTVSPost2010Prop29
280
     1
102
RTVSPost2010PropOp29
 70
     1
102
RTVSPost2010Prop30
280
     1
102
RTVSPost2010PropOp30
 70
     1
102
RTVSPost2010Prop31
280
     0
102
RTVSPost2010PropOp31
 70
     1
102
RTVSPost2010Prop32
280
     0
102
RTVSPost2010PropOp32
 70
     1
102
RTVSPost2010Prop33
280
     0
102
RTVSPost2010PropOp33
 70
     1
102
RTVSPost2010Prop34
280
     0
102
RTVSPost2010PropOp34
 70
     1
102
RTVSPost2010Prop35
280
     0
102
RTVSPost2010PropOp35
 70
     1
102
RTVSPost2010Prop36
280
     0
102
RTVSPost2010PropOp36
 70
     1
102
RTVSPost2010Prop37
 90
       50
102
RTVSPost2010PropOp37
 70
     1
102
RTVSPost2010Prop38
140
0.0
102
RTVSPost2010PropOp38
 70
     1
102
RTVSPost2010Prop39
140
1.0
102
RTVSPost2010PropOp39
 70
     1
102
RTVSPost2010Prop40
 90
        0
102
RTVSPost2010PropOp40
 70
     1
102
RTVSPost2010Prop41ColorIndex
 90
       18
102
RTVSPost2010Prop41ColorRGB
 90
        0
102
RTVSPost2010PropOp41
 70
     1
102
RTVSPost2010Prop42
 90
       50
102
RTVSPost2010PropOp42
 70
     1
102
RTVSPost2010Prop43
 90
        3
102
RTVSPost2010PropOp43
 70
     1
102
RTVSPost2010Prop44ColorIndex
 90
        5
102
RTVSPost2010Prop44ColorRGB
 90
      255
102
RTVSPost2010PropOp44
 70
     1
102
RTVSPost2010Prop45
280
     0
102
RTVSPost2010PropOp45
 70
     1
102
RTVSPost2010Prop46
 90
       50
102
RTVSPost2010PropOp46
 70
     1
102
RTVSPost2010Prop47
 90
       50
102
RTVSPost2010PropOp47
 70
     1
102
RTVSPost2010Prop48
 90
       50
102
RTVSPost2010PropOp48
 70
     1
102
RTVSPost2010Prop49
280
     0
102
RTVSPost2010PropOp49
 70
     1
102
RTVSPost2010Prop50
 90
       50
102
RTVSPost2010PropOp50
 70
     1
102
RTVSPost2010Prop51ColorIndex
 90
      256
102
RTVSPost2010Prop51ColorRGB
 90
-16777216
102
RTVSPost2010PropOp51
 70
     0
102
RTVSPost2010Prop52
140
1.0
102
RTVSPost2010PropOp52
 70
     0
102
RTVSPost2010Prop53
 90
        2
102
RTVSPost2010PropOp53
 70
     1
102
RTVSPost2010Prop54
  1
strokes_ogs.tif
102
RTVSPost2010PropOp54
 70
     1
102
RTVSPost2010Prop55
280
     0
102
RTVSPost2010PropOp55
 70
     1
102
RTVSPost2010Prop56
140
1.0
102
RTVSPost2010PropOp56
 70
     1
102
RTVSPost2010Prop57
140
1.0
102
RTVSPost2010PropOp57
 70
     1
  0
XRECORD
  5
536
102
{ACAD_REACTORS
330
535
102
}
330
535
100
AcDbXrecord
280
     1
102
RTVSPost2010Prop28
280
     0
102
RTVSPost2010PropOp28
 70
     1
102
RTVSPost2010Prop29
280
     1
102
RTVSPost2010PropOp29
 70
     1
102
RTVSPost2010Prop30
280
     1
102
RTVSPost2010PropOp30
 70
     1
102
RTVSPost2010Prop31
280
     0
102
RTVSPost2010PropOp31
 70
     1
102
RTVSPost2010Prop32
280
     0
102
RTVSPost2010PropOp32
 70
     1
102
RTVSPost2010Prop33
280
     0
102
RTVSPost2010PropOp33
 70
     1
102
RTVSPost2010Prop34
280
     0
102
RTVSPost2010PropOp34
 70
     1
102
RTVSPost2010Prop35
280
     0
102
RTVSPost2010PropOp35
 70
     1
102
RTVSPost2010Prop36
280
     0
102
RTVSPost2010PropOp36
 70
     1
102
RTVSPost2010Prop37
 90
       50
102
RTVSPost2010PropOp37
 70
     1
102
RTVSPost2010Prop38
140
0.0
102
RTVSPost2010PropOp38
 70
     1
102
RTVSPost2010Prop39
140
1.0
102
RTVSPost2010PropOp39
 70
     1
102
RTVSPost2010Prop40
 90
        0
102
RTVSPost2010PropOp40
 70
     1
102
RTVSPost2010Prop41ColorIndex
 90
       18
102
RTVSPost2010Prop41ColorRGB
 90
        0
102
RTVSPost2010PropOp41
 70
     1
102
RTVSPost2010Prop42
 90
       50
102
RTVSPost2010PropOp42
 70
     1
102
RTVSPost2010Prop43
 90
        3
102
RTVSPost2010PropOp43
 70
     1
102
RTVSPost2010Prop44ColorIndex
 90
        5
102
RTVSPost2010Prop44ColorRGB
 90
      255
102
RTVSPost2010PropOp44
 70
     1
102
RTVSPost2010Prop45
280
     0
102
RTVSPost2010PropOp45
 70
     1
102
RTVSPost2010Prop46
 90
       50
102
RTVSPost2010PropOp46
 70
     1
102
RTVSPost2010Prop47
 90
       50
102
RTVSPost2010PropOp47
 70
     1
102
RTVSPost2010Prop48
 90
       50
102
RTVSPost2010PropOp48
 70
     1
102
RTVSPost2010Prop49
280
     0
102
RTVSPost2010PropOp49
 70
     1
102
RTVSPost2010Prop50
 90
       50
102
RTVSPost2010PropOp50
 70
     1
102
RTVSPost2010Prop51ColorIndex
 90
      256
102
RTVSPost2010Prop51ColorRGB
 90
-16777216
102
RTVSPost2010PropOp51
 70
     0
102
RTVSPost2010Prop52
140
1.0
102
RTVSPost2010PropOp52
 70
     0
102
RTVSPost2010Prop53
 90
        2
102
RTVSPost2010PropOp53
 70
     1
102
RTVSPost2010Prop54
  1
strokes_ogs.tif
102
RTVSPost2010PropOp54
 70
     1
102
RTVSPost2010Prop55
280
     0
102
RTVSPost2010PropOp55
 70
     1
102
RTVSPost2010Prop56
140
1.0
102
RTVSPost2010PropOp56
 70
     1
102
RTVSPost2010Prop57
140
1.0
102
RTVSPost2010PropOp57
 70
     1
  0
XRECORD
  5
542
102
{ACAD_REACTORS
330
541
102
}
330
541
100
AcDbXrecord
280
     1
102
RTVSPost2010Prop28
280
     0
102
RTVSPost2010PropOp28
 70
     1
102
RTVSPost2010Prop29
280
     1
102
RTVSPost2010PropOp29
 70
     1
102
RTVSPost2010Prop30
280
     1
102
RTVSPost2010PropOp30
 70
     1
102
RTVSPost2010Prop31
280
     0
102
RTVSPost2010PropOp31
 70
     1
102
RTVSPost2010Prop32
280
     0
102
RTVSPost2010PropOp32
 70
     1
102
RTVSPost2010Prop33
280
     0
102
RTVSPost2010PropOp33
 70
     1
102
RTVSPost2010Prop34
280
     0
102
RTVSPost2010PropOp34
 70
     1
102
RTVSPost2010Prop35
280
     0
102
RTVSPost2010PropOp35
 70
     1
102
RTVSPost2010Prop36
280
     0
102
RTVSPost2010PropOp36
 70
     1
102
RTVSPost2010Prop37
 90
       50
102
RTVSPost2010PropOp37
 70
     0
102
RTVSPost2010Prop38
140
0.0
102
RTVSPost2010PropOp38
 70
     0
102
RTVSPost2010Prop39
140
1.0
102
RTVSPost2010PropOp39
 70
     0
102
RTVSPost2010Prop40
 90
        0
102
RTVSPost2010PropOp40
 70
     0
102
RTVSPost2010Prop41ColorIndex
 90
       18
102
RTVSPost2010Prop41ColorRGB
 90
        0
102
RTVSPost2010PropOp41
 70
     0
102
RTVSPost2010Prop42
 90
       50
102
RTVSPost2010PropOp42
 70
     0
102
RTVSPost2010Prop43
 90
        3
102
RTVSPost2010PropOp43
 70
     0
102
RTVSPost2010Prop44ColorIndex
 90
        5
102
RTVSPost2010Prop44ColorRGB
 90
      255
102
RTVSPost2010PropOp44
 70
     0
102
RTVSPost2010Prop45
280
     0
102
RTVSPost2010PropOp45
 70
     1
102
RTVSPost2010Prop46
 90
       50
102
RTVSPost2010PropOp46
 70
     0
102
RTVSPost2010Prop47
 90
       50
102
RTVSPost2010PropOp47
 70
     0
102
RTVSPost2010Prop48
 90
       50
102
RTVSPost2010PropOp48
 70
     0
102
RTVSPost2010Prop49
280
     0
102
RTVSPost2010PropOp49
 70
     1
102
RTVSPost2010Prop50
 90
       50
102
RTVSPost2010PropOp50
 70
     0
102
RTVSPost2010Prop51ColorIndex
 90
      256
102
RTVSPost2010Prop51ColorRGB
 90
-16777216
102
RTVSPost2010PropOp51
 70
     0
102
RTVSPost2010Prop52
140
1.0
102
RTVSPost2010PropOp52
 70
     0
102
RTVSPost2010Prop53
 90
        2
102
RTVSPost2010PropOp53
 70
     0
102
RTVSPost2010Prop54
  1
strokes_ogs.tif
102
RTVSPost2010PropOp54
 70
     0
102
RTVSPost2010Prop55
280
     0
102
RTVSPost2010PropOp55
 70
     1
102
RTVSPost2010Prop56
140
1.0
102
RTVSPost2010PropOp56
 70
     0
102
RTVSPost2010Prop57
140
1.0
102
RTVSPost2010PropOp57
 70
     0
  0
XRECORD
  5
52E
102
{ACAD_REACTORS
330
52D
102
}
330
52D
100
AcDbXrecord
280
     1
102
RTVSPost2010Prop28
280
     0
102
RTVSPost2010PropOp28
 70
     1
102
RTVSPost2010Prop29
280
     1
102
RTVSPost2010PropOp29
 70
     1
102
RTVSPost2010Prop30
280
     1
102
RTVSPost2010PropOp30
 70
     1
102
RTVSPost2010Prop31
280
     0
102
RTVSPost2010PropOp31
 70
     1
102
RTVSPost2010Prop32
280
     0
102
RTVSPost2010PropOp32
 70
     1
102
RTVSPost2010Prop33
280
     0
102
RTVSPost2010PropOp33
 70
     1
102
RTVSPost2010Prop34
280
     0
102
RTVSPost2010PropOp34
 70
     1
102
RTVSPost2010Prop35
280
     0
102
RTVSPost2010PropOp35
 70
     1
102
RTVSPost2010Prop36
280
     0
102
RTVSPost2010PropOp36
 70
     1
102
RTVSPost2010Prop37
 90
       50
102
RTVSPost2010PropOp37
 70
     1
102
RTVSPost2010Prop38
140
0.0
102
RTVSPost2010PropOp38
 70
     1
102
RTVSPost2010Prop39
140
1.0
102
RTVSPost2010PropOp39
 70
     1
102
RTVSPost2010Prop40
 90
        0
102
RTVSPost2010PropOp40
 70
     1
102
RTVSPost2010Prop41ColorIndex
 90
       18
102
RTVSPost2010Prop41ColorRGB
 90
        0
102
RTVSPost2010PropOp41
 70
     1
102
RTVSPost2010Prop42
 90
       50
102
RTVSPost2010PropOp42
 70
     1
102
RTVSPost2010Prop43
 90
        3
102
RTVSPost2010PropOp43
 70
     1
102
RTVSPost2010Prop44ColorIndex
 90
        5
102
RTVSPost2010Prop44ColorRGB
 90
      255
102
RTVSPost2010PropOp44
 70
     1
102
RTVSPost2010Prop45
280
     0
102
RTVSPost2010PropOp45
 70
     1
102
RTVSPost2010Prop46
 90
       50
102
RTVSPost2010PropOp46
 70
     1
102
RTVSPost2010Prop47
 90
       50
102
RTVSPost2010PropOp47
 70
     1
102
RTVSPost2010Prop48
 90
       50
102
RTVSPost2010PropOp48
 70
     1
102
RTVSPost2010Prop49
280
     0
102
RTVSPost2010PropOp49
 70
     1
102
RTVSPost2010Prop50
 90
       50
102
RTVSPost2010PropOp50
 70
     1
102
RTVSPost2010Prop51ColorIndex
 90
      256
102
RTVSPost2010Prop51ColorRGB
 90
-16777216
102
RTVSPost2010PropOp51
 70
     0
102
RTVSPost2010Prop52
140
1.0
102
RTVSPost2010PropOp52
 70
     0
102
RTVSPost2010Prop53
 90
        2
102
RTVSPost2010PropOp53
 70
     1
102
RTVSPost2010Prop54
  1
strokes_ogs.tif
102
RTVSPost2010PropOp54
 70
     1
102
RTVSPost2010Prop55
280
     0
102
RTVSPost2010PropOp55
 70
     1
102
RTVSPost2010Prop56
140
1.0
102
RTVSPost2010PropOp56
 70
     1
102
RTVSPost2010Prop57
140
1.0
102
RTVSPost2010PropOp57
 70
     1
  0
XRECORD
  5
544
102
{ACAD_REACTORS
330
543
102
}
330
543
100
AcDbXrecord
280
     1
102
RTVSPost2010Prop28
280
     0
102
RTVSPost2010PropOp28
 70
     1
102
RTVSPost2010Prop29
280
     1
102
RTVSPost2010PropOp29
 70
     1
102
RTVSPost2010Prop30
280
     1
102
RTVSPost2010PropOp30
 70
     1
102
RTVSPost2010Prop31
280
     0
102
RTVSPost2010PropOp31
 70
     1
102
RTVSPost2010Prop32
280
     0
102
RTVSPost2010PropOp32
 70
     1
102
RTVSPost2010Prop33
280
     0
102
RTVSPost2010PropOp33
 70
     1
102
RTVSPost2010Prop34
280
     0
102
RTVSPost2010PropOp34
 70
     1
102
RTVSPost2010Prop35
280
     0
102
RTVSPost2010PropOp35
 70
     1
102
RTVSPost2010Prop36
280
     0
102
RTVSPost2010PropOp36
 70
     1
102
RTVSPost2010Prop37
 90
       50
102
RTVSPost2010PropOp37
 70
     0
102
RTVSPost2010Prop38
140
0.0
102
RTVSPost2010PropOp38
 70
     0
102
RTVSPost2010Prop39
140
1.0
102
RTVSPost2010PropOp39
 70
     0
102
RTVSPost2010Prop40
 90
        0
102
RTVSPost2010PropOp40
 70
     0
102
RTVSPost2010Prop41ColorIndex
 90
       18
102
RTVSPost2010Prop41ColorRGB
 90
        0
102
RTVSPost2010PropOp41
 70
     0
102
RTVSPost2010Prop42
 90
       50
102
RTVSPost2010PropOp42
 70
     0
102
RTVSPost2010Prop43
 90
        3
102
RTVSPost2010PropOp43
 70
     0
102
RTVSPost2010Prop44ColorIndex
 90
        5
102
RTVSPost2010Prop44ColorRGB
 90
      255
102
RTVSPost2010PropOp44
 70
     0
102
RTVSPost2010Prop45
280
     0
102
RTVSPost2010PropOp45
 70
     1
102
RTVSPost2010Prop46
 90
       50
102
RTVSPost2010PropOp46
 70
     0
102
RTVSPost2010Prop47
 90
       50
102
RTVSPost2010PropOp47
 70
     0
102
RTVSPost2010Prop48
 90
       50
102
RTVSPost2010PropOp48
 70
     0
102
RTVSPost2010Prop49
280
     0
102
RTVSPost2010PropOp49
 70
     1
102
RTVSPost2010Prop50
 90
       50
102
RTVSPost2010PropOp50
 70
     0
102
RTVSPost2010Prop51ColorIndex
 90
      256
102
RTVSPost2010Prop51ColorRGB
 90
-16777216
102
RTVSPost2010PropOp51
 70
     0
102
RTVSPost2010Prop52
140
1.0
102
RTVSPost2010PropOp52
 70
     0
102
RTVSPost2010Prop53
 90
        2
102
RTVSPost2010PropOp53
 70
     0
102
RTVSPost2010Prop54
  1
strokes_ogs.tif
102
RTVSPost2010PropOp54
 70
     0
102
RTVSPost2010Prop55
280
     0
102
RTVSPost2010PropOp55
 70
     1
102
RTVSPost2010Prop56
140
1.0
102
RTVSPost2010PropOp56
 70
     0
102
RTVSPost2010Prop57
140
1.0
102
RTVSPost2010PropOp57
 70
     0
  0
XRECORD
  5
524
102
{ACAD_REACTORS
330
523
102
}
330
523
100
AcDbXrecord
280
     1
102
RTVSPost2010Prop28
280
     0
102
RTVSPost2010PropOp28
 70
     1
102
RTVSPost2010Prop29
280
     1
102
RTVSPost2010PropOp29
 70
     1
102
RTVSPost2010Prop30
280
     1
102
RTVSPost2010PropOp30
 70
     1
102
RTVSPost2010Prop31
280
     0
102
RTVSPost2010PropOp31
 70
     1
102
RTVSPost2010Prop32
280
     0
102
RTVSPost2010PropOp32
 70
     1
102
RTVSPost2010Prop33
280
     0
102
RTVSPost2010PropOp33
 70
     1
102
RTVSPost2010Prop34
280
     0
102
RTVSPost2010PropOp34
 70
     1
102
RTVSPost2010Prop35
280
     0
102
RTVSPost2010PropOp35
 70
     1
102
RTVSPost2010Prop36
280
     0
102
RTVSPost2010PropOp36
 70
     1
102
RTVSPost2010Prop37
 90
       50
102
RTVSPost2010PropOp37
 70
     1
102
RTVSPost2010Prop38
140
0.0
102
RTVSPost2010PropOp38
 70
     1
102
RTVSPost2010Prop39
140
1.0
102
RTVSPost2010PropOp39
 70
     1
102
RTVSPost2010Prop40
 90
        0
102
RTVSPost2010PropOp40
 70
     1
102
RTVSPost2010Prop41ColorIndex
 90
       18
102
RTVSPost2010Prop41ColorRGB
 90
        0
102
RTVSPost2010PropOp41
 70
     1
102
RTVSPost2010Prop42
 90
       50
102
RTVSPost2010PropOp42
 70
     1
102
RTVSPost2010Prop43
 90
        3
102
RTVSPost2010PropOp43
 70
     1
102
RTVSPost2010Prop44ColorIndex
 90
        5
102
RTVSPost2010Prop44ColorRGB
 90
      255
102
RTVSPost2010PropOp44
 70
     1
102
RTVSPost2010Prop45
280
     0
102
RTVSPost2010PropOp45
 70
     1
102
RTVSPost2010Prop46
 90
       50
102
RTVSPost2010PropOp46
 70
     1
102
RTVSPost2010Prop47
 90
       50
102
RTVSPost2010PropOp47
 70
     1
102
RTVSPost2010Prop48
 90
       50
102
RTVSPost2010PropOp48
 70
     1
102
RTVSPost2010Prop49
280
     0
102
RTVSPost2010PropOp49
 70
     1
102
RTVSPost2010Prop50
 90
       50
102
RTVSPost2010PropOp50
 70
     1
102
RTVSPost2010Prop51ColorIndex
 90
      256
102
RTVSPost2010Prop51ColorRGB
 90
-16777216
102
RTVSPost2010PropOp51
 70
     0
102
RTVSPost2010Prop52
140
1.0
102
RTVSPost2010PropOp52
 70
     0
102
RTVSPost2010Prop53
 90
        2
102
RTVSPost2010PropOp53
 70
     1
102
RTVSPost2010Prop54
  1
strokes_ogs.tif
102
RTVSPost2010PropOp54
 70
     1
102
RTVSPost2010Prop55
280
     0
102
RTVSPost2010PropOp55
 70
     1
102
RTVSPost2010Prop56
140
1.0
102
RTVSPost2010PropOp56
 70
     1
102
RTVSPost2010Prop57
140
1.0
102
RTVSPost2010PropOp57
 70
     1
  0
XRECORD
  5
540
102
{ACAD_REACTORS
330
53F
102
}
330
53F
100
AcDbXrecord
280
     1
102
RTVSPost2010Prop28
280
     0
102
RTVSPost2010PropOp28
 70
     1
102
RTVSPost2010Prop29
280
     1
102
RTVSPost2010PropOp29
 70
     1
102
RTVSPost2010Prop30
280
     1
102
RTVSPost2010PropOp30
 70
     1
102
RTVSPost2010Prop31
280
     0
102
RTVSPost2010PropOp31
 70
     1
102
RTVSPost2010Prop32
280
     0
102
RTVSPost2010PropOp32
 70
     1
102
RTVSPost2010Prop33
280
     0
102
RTVSPost2010PropOp33
 70
     1
102
RTVSPost2010Prop34
280
     0
102
RTVSPost2010PropOp34
 70
     1
102
RTVSPost2010Prop35
280
     0
102
RTVSPost2010PropOp35
 70
     1
102
RTVSPost2010Prop36
280
     0
102
RTVSPost2010PropOp36
 70
     1
102
RTVSPost2010Prop37
 90
       50
102
RTVSPost2010PropOp37
 70
     1
102
RTVSPost2010Prop38
140
0.0
102
RTVSPost2010PropOp38
 70
     1
102
RTVSPost2010Prop39
140
1.0
102
RTVSPost2010PropOp39
 70
     1
102
RTVSPost2010Prop40
 90
        0
102
RTVSPost2010PropOp40
 70
     1
102
RTVSPost2010Prop41ColorIndex
 90
       18
102
RTVSPost2010Prop41ColorRGB
 90
        0
102
RTVSPost2010PropOp41
 70
     1
102
RTVSPost2010Prop42
 90
       50
102
RTVSPost2010PropOp42
 70
     1
102
RTVSPost2010Prop43
 90
        3
102
RTVSPost2010PropOp43
 70
     1
102
RTVSPost2010Prop44ColorIndex
 90
        5
102
RTVSPost2010Prop44ColorRGB
 90
      255
102
RTVSPost2010PropOp44
 70
     1
102
RTVSPost2010Prop45
280
     0
102
RTVSPost2010PropOp45
 70
     1
102
RTVSPost2010Prop46
 90
       50
102
RTVSPost2010PropOp46
 70
     1
102
RTVSPost2010Prop47
 90
       50
102
RTVSPost2010PropOp47
 70
     1
102
RTVSPost2010Prop48
 90
       50
102
RTVSPost2010PropOp48
 70
     1
102
RTVSPost2010Prop49
280
     0
102
RTVSPost2010PropOp49
 70
     1
102
RTVSPost2010Prop50
 90
       50
102
RTVSPost2010PropOp50
 70
     1
102
RTVSPost2010Prop51ColorIndex
 90
      256
102
RTVSPost2010Prop51ColorRGB
 90
-16777216
102
RTVSPost2010PropOp51
 70
     0
102
RTVSPost2010Prop52
140
1.0
102
RTVSPost2010PropOp52
 70
     0
102
RTVSPost2010Prop53
 90
        2
102
RTVSPost2010PropOp53
 70
     1
102
RTVSPost2010Prop54
  1
strokes_ogs.tif
102
RTVSPost2010PropOp54
 70
     1
102
RTVSPost2010Prop55
280
     0
102
RTVSPost2010PropOp55
 70
     1
102
RTVSPost2010Prop56
140
1.0
102
RTVSPost2010PropOp56
 70
     1
102
RTVSPost2010Prop57
140
1.0
102
RTVSPost2010PropOp57
 70
     1
  0
XRECORD
  5
53E
102
{ACAD_REACTORS
330
53D
102
}
330
53D
100
AcDbXrecord
280
     1
102
RTVSPost2010Prop28
280
     0
102
RTVSPost2010PropOp28
 70
     1
102
RTVSPost2010Prop29
280
     1
102
RTVSPost2010PropOp29
 70
     1
102
RTVSPost2010Prop30
280
     1
102
RTVSPost2010PropOp30
 70
     1
102
RTVSPost2010Prop31
280
     0
102
RTVSPost2010PropOp31
 70
     1
102
RTVSPost2010Prop32
280
     0
102
RTVSPost2010PropOp32
 70
     1
102
RTVSPost2010Prop33
280
     0
102
RTVSPost2010PropOp33
 70
     1
102
RTVSPost2010Prop34
280
     0
102
RTVSPost2010PropOp34
 70
     1
102
RTVSPost2010Prop35
280
     0
102
RTVSPost2010PropOp35
 70
     1
102
RTVSPost2010Prop36
280
     0
102
RTVSPost2010PropOp36
 70
     1
102
RTVSPost2010Prop37
 90
       50
102
RTVSPost2010PropOp37
 70
     1
102
RTVSPost2010Prop38
140
0.0
102
RTVSPost2010PropOp38
 70
     1
102
RTVSPost2010Prop39
140
1.0
102
RTVSPost2010PropOp39
 70
     1
102
RTVSPost2010Prop40
 90
        0
102
RTVSPost2010PropOp40
 70
     1
102
RTVSPost2010Prop41ColorIndex
 90
       18
102
RTVSPost2010Prop41ColorRGB
 90
        0
102
RTVSPost2010PropOp41
 70
     1
102
RTVSPost2010Prop42
 90
       50
102
RTVSPost2010PropOp42
 70
     1
102
RTVSPost2010Prop43
 90
        3
102
RTVSPost2010PropOp43
 70
     1
102
RTVSPost2010Prop44ColorIndex
 90
        5
102
RTVSPost2010Prop44ColorRGB
 90
      255
102
RTVSPost2010PropOp44
 70
     1
102
RTVSPost2010Prop45
280
     0
102
RTVSPost2010PropOp45
 70
     1
102
RTVSPost2010Prop46
 90
       50
102
RTVSPost2010PropOp46
 70
     1
102
RTVSPost2010Prop47
 90
       50
102
RTVSPost2010PropOp47
 70
     1
102
RTVSPost2010Prop48
 90
       50
102
RTVSPost2010PropOp48
 70
     1
102
RTVSPost2010Prop49
280
     0
102
RTVSPost2010PropOp49
 70
     1
102
RTVSPost2010Prop50
 90
       50
102
RTVSPost2010PropOp50
 70
     1
102
RTVSPost2010Prop51ColorIndex
 90
      256
102
RTVSPost2010Prop51ColorRGB
 90
-16777216
102
RTVSPost2010PropOp51
 70
     0
102
RTVSPost2010Prop52
140
1.0
102
RTVSPost2010PropOp52
 70
     0
102
RTVSPost2010Prop53
 90
        2
102
RTVSPost2010PropOp53
 70
     1
102
RTVSPost2010Prop54
  1
strokes_ogs.tif
102
RTVSPost2010PropOp54
 70
     1
102
RTVSPost2010Prop55
280
     0
102
RTVSPost2010PropOp55
 70
     1
102
RTVSPost2010Prop56
140
1.0
102
RTVSPost2010PropOp56
 70
     1
102
RTVSPost2010Prop57
140
1.0
102
RTVSPost2010PropOp57
 70
     1
  0
XRECORD
  5
538
102
{ACAD_REACTORS
330
537
102
}
330
537
100
AcDbXrecord
280
     1
102
RTVSPost2010Prop28
280
     0
102
RTVSPost2010PropOp28
 70
     1
102
RTVSPost2010Prop29
280
     1
102
RTVSPost2010PropOp29
 70
     1
102
RTVSPost2010Prop30
280
     1
102
RTVSPost2010PropOp30
 70
     1
102
RTVSPost2010Prop31
280
     0
102
RTVSPost2010PropOp31
 70
     1
102
RTVSPost2010Prop32
280
     0
102
RTVSPost2010PropOp32
 70
     1
102
RTVSPost2010Prop33
280
     0
102
RTVSPost2010PropOp33
 70
     1
102
RTVSPost2010Prop34
280
     0
102
RTVSPost2010PropOp34
 70
     1
102
RTVSPost2010Prop35
280
     0
102
RTVSPost2010PropOp35
 70
     1
102
RTVSPost2010Prop36
280
     0
102
RTVSPost2010PropOp36
 70
     1
102
RTVSPost2010Prop37
 90
       50
102
RTVSPost2010PropOp37
 70
     1
102
RTVSPost2010Prop38
140
0.0
102
RTVSPost2010PropOp38
 70
     1
102
RTVSPost2010Prop39
140
1.0
102
RTVSPost2010PropOp39
 70
     1
102
RTVSPost2010Prop40
 90
        0
102
RTVSPost2010PropOp40
 70
     1
102
RTVSPost2010Prop41ColorIndex
 90
       18
102
RTVSPost2010Prop41ColorRGB
 90
        0
102
RTVSPost2010PropOp41
 70
     1
102
RTVSPost2010Prop42
 90
       50
102
RTVSPost2010PropOp42
 70
     1
102
RTVSPost2010Prop43
 90
        3
102
RTVSPost2010PropOp43
 70
     1
102
RTVSPost2010Prop44ColorIndex
 90
        5
102
RTVSPost2010Prop44ColorRGB
 90
      255
102
RTVSPost2010PropOp44
 70
     1
102
RTVSPost2010Prop45
280
     0
102
RTVSPost2010PropOp45
 70
     1
102
RTVSPost2010Prop46
 90
       50
102
RTVSPost2010PropOp46
 70
     1
102
RTVSPost2010Prop47
 90
       50
102
RTVSPost2010PropOp47
 70
     1
102
RTVSPost2010Prop48
 90
       50
102
RTVSPost2010PropOp48
 70
     1
102
RTVSPost2010Prop49
280
     0
102
RTVSPost2010PropOp49
 70
     1
102
RTVSPost2010Prop50
 90
       50
102
RTVSPost2010PropOp50
 70
     1
102
RTVSPost2010Prop51ColorIndex
 90
      256
102
RTVSPost2010Prop51ColorRGB
 90
-16777216
102
RTVSPost2010PropOp51
 70
     0
102
RTVSPost2010Prop52
140
1.0
102
RTVSPost2010PropOp52
 70
     0
102
RTVSPost2010Prop53
 90
        2
102
RTVSPost2010PropOp53
 70
     1
102
RTVSPost2010Prop54
  1
strokes_ogs.tif
102
RTVSPost2010PropOp54
 70
     1
102
RTVSPost2010Prop55
280
     0
102
RTVSPost2010PropOp55
 70
     1
102
RTVSPost2010Prop56
140
1.0
102
RTVSPost2010PropOp56
 70
     1
102
RTVSPost2010Prop57
140
1.0
102
RTVSPost2010PropOp57
 70
     1
  0
XRECORD
  5
53A
102
{ACAD_REACTORS
330
539
102
}
330
539
100
AcDbXrecord
280
     1
102
RTVSPost2010Prop28
280
     0
102
RTVSPost2010PropOp28
 70
     1
102
RTVSPost2010Prop29
280
     1
102
RTVSPost2010PropOp29
 70
     1
102
RTVSPost2010Prop30
280
     1
102
RTVSPost2010PropOp30
 70
     1
102
RTVSPost2010Prop31
280
     0
102
RTVSPost2010PropOp31
 70
     1
102
RTVSPost2010Prop32
280
     0
102
RTVSPost2010PropOp32
 70
     1
102
RTVSPost2010Prop33
280
     0
102
RTVSPost2010PropOp33
 70
     1
102
RTVSPost2010Prop34
280
     0
102
RTVSPost2010PropOp34
 70
     1
102
RTVSPost2010Prop35
280
     0
102
RTVSPost2010PropOp35
 70
     1
102
RTVSPost2010Prop36
280
     0
102
RTVSPost2010PropOp36
 70
     1
102
RTVSPost2010Prop37
 90
       50
102
RTVSPost2010PropOp37
 70
     1
102
RTVSPost2010Prop38
140
0.0
102
RTVSPost2010PropOp38
 70
     1
102
RTVSPost2010Prop39
140
1.0
102
RTVSPost2010PropOp39
 70
     1
102
RTVSPost2010Prop40
 90
        0
102
RTVSPost2010PropOp40
 70
     1
102
RTVSPost2010Prop41ColorIndex
 90
       18
102
RTVSPost2010Prop41ColorRGB
 90
        0
102
RTVSPost2010PropOp41
 70
     1
102
RTVSPost2010Prop42
 90
       50
102
RTVSPost2010PropOp42
 70
     1
102
RTVSPost2010Prop43
 90
        3
102
RTVSPost2010PropOp43
 70
     1
102
RTVSPost2010Prop44ColorIndex
 90
        5
102
RTVSPost2010Prop44ColorRGB
 90
      255
102
RTVSPost2010PropOp44
 70
     1
102
RTVSPost2010Prop45
280
     0
102
RTVSPost2010PropOp45
 70
     1
102
RTVSPost2010Prop46
 90
       50
102
RTVSPost2010PropOp46
 70
     1
102
RTVSPost2010Prop47
 90
       50
102
RTVSPost2010PropOp47
 70
     1
102
RTVSPost2010Prop48
 90
       50
102
RTVSPost2010PropOp48
 70
     1
102
RTVSPost2010Prop49
280
     0
102
RTVSPost2010PropOp49
 70
     1
102
RTVSPost2010Prop50
 90
       50
102
RTVSPost2010PropOp50
 70
     1
102
RTVSPost2010Prop51ColorIndex
 90
      256
102
RTVSPost2010Prop51ColorRGB
 90
-16777216
102
RTVSPost2010PropOp51
 70
     0
102
RTVSPost2010Prop52
140
1.0
102
RTVSPost2010PropOp52
 70
     0
102
RTVSPost2010Prop53
 90
        2
102
RTVSPost2010PropOp53
 70
     1
102
RTVSPost2010Prop54
  1
strokes_ogs.tif
102
RTVSPost2010PropOp54
 70
     1
102
RTVSPost2010Prop55
280
     0
102
RTVSPost2010PropOp55
 70
     1
102
RTVSPost2010Prop56
140
1.0
102
RTVSPost2010PropOp56
 70
     1
102
RTVSPost2010Prop57
140
1.0
102
RTVSPost2010PropOp57
 70
     1
  0
XRECORD
  5
52C
102
{ACAD_REACTORS
330
52B
102
}
330
52B
100
AcDbXrecord
280
     1
102
RTVSPost2010Prop28
280
     0
102
RTVSPost2010PropOp28
 70
     1
102
RTVSPost2010Prop29
280
     1
102
RTVSPost2010PropOp29
 70
     1
102
RTVSPost2010Prop30
280
     1
102
RTVSPost2010PropOp30
 70
     1
102
RTVSPost2010Prop31
280
     0
102
RTVSPost2010PropOp31
 70
     1
102
RTVSPost2010Prop32
280
     0
102
RTVSPost2010PropOp32
 70
     1
102
RTVSPost2010Prop33
280
     0
102
RTVSPost2010PropOp33
 70
     1
102
RTVSPost2010Prop34
280
     0
102
RTVSPost2010PropOp34
 70
     1
102
RTVSPost2010Prop35
280
     0
102
RTVSPost2010PropOp35
 70
     1
102
RTVSPost2010Prop36
280
     0
102
RTVSPost2010PropOp36
 70
     1
102
RTVSPost2010Prop37
 90
       50
102
RTVSPost2010PropOp37
 70
     1
102
RTVSPost2010Prop38
140
0.0
102
RTVSPost2010PropOp38
 70
     1
102
RTVSPost2010Prop39
140
1.0
102
RTVSPost2010PropOp39
 70
     1
102
RTVSPost2010Prop40
 90
        0
102
RTVSPost2010PropOp40
 70
     1
102
RTVSPost2010Prop41ColorIndex
 90
       18
102
RTVSPost2010Prop41ColorRGB
 90
        0
102
RTVSPost2010PropOp41
 70
     1
102
RTVSPost2010Prop42
 90
       50
102
RTVSPost2010PropOp42
 70
     1
102
RTVSPost2010Prop43
 90
        3
102
RTVSPost2010PropOp43
 70
     1
102
RTVSPost2010Prop44ColorIndex
 90
        5
102
RTVSPost2010Prop44ColorRGB
 90
      255
102
RTVSPost2010PropOp44
 70
     1
102
RTVSPost2010Prop45
280
     0
102
RTVSPost2010PropOp45
 70
     1
102
RTVSPost2010Prop46
 90
       50
102
RTVSPost2010PropOp46
 70
     1
102
RTVSPost2010Prop47
 90
       50
102
RTVSPost2010PropOp47
 70
     1
102
RTVSPost2010Prop48
 90
       50
102
RTVSPost2010PropOp48
 70
     1
102
RTVSPost2010Prop49
280
     0
102
RTVSPost2010PropOp49
 70
     1
102
RTVSPost2010Prop50
 90
       50
102
RTVSPost2010PropOp50
 70
     1
102
RTVSPost2010Prop51ColorIndex
 90
      256
102
RTVSPost2010Prop51ColorRGB
 90
-16777216
102
RTVSPost2010PropOp51
 70
     0
102
RTVSPost2010Prop52
140
1.0
102
RTVSPost2010PropOp52
 70
     0
102
RTVSPost2010Prop53
 90
        2
102
RTVSPost2010PropOp53
 70
     1
102
RTVSPost2010Prop54
  1
strokes_ogs.tif
102
RTVSPost2010PropOp54
 70
     1
102
RTVSPost2010Prop55
280
     0
102
RTVSPost2010PropOp55
 70
     1
102
RTVSPost2010Prop56
140
1.0
102
RTVSPost2010PropOp56
 70
     1
102
RTVSPost2010Prop57
140
1.0
102
RTVSPost2010PropOp57
 70
     1
  0
XRECORD
  5
534
102
{ACAD_REACTORS
330
533
102
}
330
533
100
AcDbXrecord
280
     1
102
RTVSPost2010Prop28
280
     0
102
RTVSPost2010PropOp28
 70
     1
102
RTVSPost2010Prop29
280
     1
102
RTVSPost2010PropOp29
 70
     1
102
RTVSPost2010Prop30
280
     1
102
RTVSPost2010PropOp30
 70
     1
102
RTVSPost2010Prop31
280
     0
102
RTVSPost2010PropOp31
 70
     1
102
RTVSPost2010Prop32
280
     0
102
RTVSPost2010PropOp32
 70
     1
102
RTVSPost2010Prop33
280
     0
102
RTVSPost2010PropOp33
 70
     1
102
RTVSPost2010Prop34
280
     0
102
RTVSPost2010PropOp34
 70
     1
102
RTVSPost2010Prop35
280
     0
102
RTVSPost2010PropOp35
 70
     1
102
RTVSPost2010Prop36
280
     0
102
RTVSPost2010PropOp36
 70
     1
102
RTVSPost2010Prop37
 90
       50
102
RTVSPost2010PropOp37
 70
     1
102
RTVSPost2010Prop38
140
0.0
102
RTVSPost2010PropOp38
 70
     1
102
RTVSPost2010Prop39
140
1.0
102
RTVSPost2010PropOp39
 70
     1
102
RTVSPost2010Prop40
 90
        0
102
RTVSPost2010PropOp40
 70
     1
102
RTVSPost2010Prop41ColorIndex
 90
       18
102
RTVSPost2010Prop41ColorRGB
 90
        0
102
RTVSPost2010PropOp41
 70
     1
102
RTVSPost2010Prop42
 90
       50
102
RTVSPost2010PropOp42
 70
     1
102
RTVSPost2010Prop43
 90
        3
102
RTVSPost2010PropOp43
 70
     1
102
RTVSPost2010Prop44ColorIndex
 90
        5
102
RTVSPost2010Prop44ColorRGB
 90
      255
102
RTVSPost2010PropOp44
 70
     1
102
RTVSPost2010Prop45
280
     0
102
RTVSPost2010PropOp45
 70
     1
102
RTVSPost2010Prop46
 90
       50
102
RTVSPost2010PropOp46
 70
     1
102
RTVSPost2010Prop47
 90
       50
102
RTVSPost2010PropOp47
 70
     1
102
RTVSPost2010Prop48
 90
       50
102
RTVSPost2010PropOp48
 70
     1
102
RTVSPost2010Prop49
280
     0
102
RTVSPost2010PropOp49
 70
     1
102
RTVSPost2010Prop50
 90
       50
102
RTVSPost2010PropOp50
 70
     1
102
RTVSPost2010Prop51ColorIndex
 90
      256
102
RTVSPost2010Prop51ColorRGB
 90
-16777216
102
RTVSPost2010PropOp51
 70
     0
102
RTVSPost2010Prop52
140
1.0
102
RTVSPost2010PropOp52
 70
     0
102
RTVSPost2010Prop53
 90
        2
102
RTVSPost2010PropOp53
 70
     1
102
RTVSPost2010Prop54
  1
strokes_ogs.tif
102
RTVSPost2010PropOp54
 70
     1
102
RTVSPost2010Prop55
280
     0
102
RTVSPost2010PropOp55
 70
     1
102
RTVSPost2010Prop56
140
1.0
102
RTVSPost2010PropOp56
 70
     1
102
RTVSPost2010Prop57
140
1.0
102
RTVSPost2010PropOp57
 70
     1
  0
XRECORD
  5
53C
102
{ACAD_REACTORS
330
53B
102
}
330
53B
100
AcDbXrecord
280
     1
102
RTVSPost2010Prop28
280
     0
102
RTVSPost2010PropOp28
 70
     1
102
RTVSPost2010Prop29
280
     1
102
RTVSPost2010PropOp29
 70
     1
102
RTVSPost2010Prop30
280
     1
102
RTVSPost2010PropOp30
 70
     1
102
RTVSPost2010Prop31
280
     0
102
RTVSPost2010PropOp31
 70
     1
102
RTVSPost2010Prop32
280
     0
102
RTVSPost2010PropOp32
 70
     1
102
RTVSPost2010Prop33
280
     0
102
RTVSPost2010PropOp33
 70
     1
102
RTVSPost2010Prop34
280
     0
102
RTVSPost2010PropOp34
 70
     1
102
RTVSPost2010Prop35
280
     0
102
RTVSPost2010PropOp35
 70
     1
102
RTVSPost2010Prop36
280
     0
102
RTVSPost2010PropOp36
 70
     1
102
RTVSPost2010Prop37
 90
       50
102
RTVSPost2010PropOp37
 70
     1
102
RTVSPost2010Prop38
140
0.0
102
RTVSPost2010PropOp38
 70
     1
102
RTVSPost2010Prop39
140
1.0
102
RTVSPost2010PropOp39
 70
     1
102
RTVSPost2010Prop40
 90
        0
102
RTVSPost2010PropOp40
 70
     1
102
RTVSPost2010Prop41ColorIndex
 90
       18
102
RTVSPost2010Prop41ColorRGB
 90
        0
102
RTVSPost2010PropOp41
 70
     1
102
RTVSPost2010Prop42
 90
       50
102
RTVSPost2010PropOp42
 70
     1
102
RTVSPost2010Prop43
 90
        3
102
RTVSPost2010PropOp43
 70
     1
102
RTVSPost2010Prop44ColorIndex
 90
        5
102
RTVSPost2010Prop44ColorRGB
 90
      255
102
RTVSPost2010PropOp44
 70
     1
102
RTVSPost2010Prop45
280
     0
102
RTVSPost2010PropOp45
 70
     1
102
RTVSPost2010Prop46
 90
       50
102
RTVSPost2010PropOp46
 70
     1
102
RTVSPost2010Prop47
 90
       50
102
RTVSPost2010PropOp47
 70
     1
102
RTVSPost2010Prop48
 90
       50
102
RTVSPost2010PropOp48
 70
     1
102
RTVSPost2010Prop49
280
     0
102
RTVSPost2010PropOp49
 70
     1
102
RTVSPost2010Prop50
 90
       50
102
RTVSPost2010PropOp50
 70
     1
102
RTVSPost2010Prop51ColorIndex
 90
      256
102
RTVSPost2010Prop51ColorRGB
 90
-16777216
102
RTVSPost2010PropOp51
 70
     0
102
RTVSPost2010Prop52
140
1.0
102
RTVSPost2010PropOp52
 70
     0
102
RTVSPost2010Prop53
 90
        2
102
RTVSPost2010PropOp53
 70
     1
102
RTVSPost2010Prop54
  1
strokes_ogs.tif
102
RTVSPost2010PropOp54
 70
     1
102
RTVSPost2010Prop55
280
     0
102
RTVSPost2010PropOp55
 70
     1
102
RTVSPost2010Prop56
140
1.0
102
RTVSPost2010PropOp56
 70
     1
102
RTVSPost2010Prop57
140
1.0
102
RTVSPost2010PropOp57
 70
     1
  0
ENDSEC
  0
EOF
