  0
SECTION
  2
HEADER
  9
$ACADVER
  1
AC1009
  9
$INSBASE
 10
0
 20
0
 30
0
  9
$EXTMIN
 10
0
 20
0
  9
$EXTMAX
 10
2376
 20
1680
  9
$LIMMIN
 10
0
 20
0
  9
$LIMMAX
 10
2376
 20
1680
  9
$LTSCALE
 40
8
  0
ENDSEC
  0
SECTION
  2
TABLES
  0
TABLE
  2
LTYPE
 70
     9
  0
LTYPE
  2
CONTINUOUS
 70
    64
  3
実線
 72
    65
 73
     0
 40
0.0
  0
LTYPE
  2
DASHED1
 70
    64
  3
--  --  --  --  --  --  --  --  
 72
    65
 73
     2
 40
2.5
 49
1.25
 49
-1.25
  0
LTYPE
  2
DASHED2
 70
    64
  3
----    ----    ----    ----    
 72
    65
 73
     2
 40
5.0
 49
2.5
 49
-2.5
  0
LTYPE
  2
DASHED3
 70
    64
  3
------  ------  ------  ------  
 72
    65
 73
     2
 40
5.0
 49
3.75
 49
-1.25
  0
LTYPE
  2
CENTER1
 70
    64
  3
----- - ----- - ----- - ----- - 
 72
    65
 73
     4
 40
10.0
 49
6.25
 49
-1.25
 49
1.25
 49
-1.25
  0
LTYPE
  2
CENTER2
 70
    64
  3
----------  --  ----------  --  
 72
    65
 73
     4
 40
20.0
 49
12.5
 49
-2.5
 49
2.5
 49
-2.5
  0
LTYPE
  2
PHANTOM1
 70
    64
  3
--- - - --- - - --- - - --- - - 
 72
    65
 73
     6
 40
10.0
 49
3.25
 49
-1.25
 49
1.25
 49
-1.25
 49
1.25
 49
-1.25
  0
LTYPE
  2
PHANTOM2
 70
    64
  3
--------  -  -  --------  -  -  
 72
    65
 73
     6
 40
20.0
 49
10.0
 49
-2.5
 49
1.25
 49
-2.5
 49
1.25
 49
-2.5
  0
LTYPE
  2
DOT
 70
    64
  3
-   -   -   -   -   -   -   -   
 72
    65
 73
     2
 40
2.5
 49
0.625
 49
-1.875
  0
LTYPE
  2
DUMMY
 70
    64
  3
ダミー
 72
    65
 73
     0
 40
0.0
  0
LTYPE
  2
RAND1
 70
    64
  3
ランダム線1
 72
    65
 73
     4
 40
10.0
 49
1.0
 49
-2.0
 49
3.0
 49
-4.0
  0
LTYPE
  2
RAND2
 70
    64
  3
ランダム線2
 72
    65
 73
     4
 40
14.0
 49
2.0
 49
-3.0
 49
4.0
 49
-5.0
  0
LTYPE
  2
RAND3
 70
    64
  3
ランダム線3
 72
    65
 73
     4
 40
18.0
 49
3.0
 49
-4.0
 49
5.0
 49
-6.0
  0
LTYPE
  2
RAND4
 70
    64
  3
ランダム線4
 72
    65
 73
     4
 40
22.0
 49
4.0
 49
-5.0
 49
6.0
 49
-7.0
  0
LTYPE
  2
RAND5
 70
    64
  3
ランダム線5
 72
    65
 73
     4
 40
26.0
 49
5.0
 49
-6.0
 49
7.0
 49
-8.0
  0
LTYPE
  2
LONG1
 70
    64
  3
----------  --  ----------  --  
 72
    65
 73
     4
 40
40.0
 49
32.5
 49
-2.5
 49
2.5
 49
-2.5
  0
LTYPE
  2
LONG2
 70
    64
  3
--------  -  -  --------  -  -  
 72
    65
 73
     6
 40
40.0
 49
30.0
 49
-2.5
 49
1.25
 49
-2.5
 49
1.25
 49
-2.5
  0
LTYPE
  2
LONG3
 70
    64
  3
+++++++++++++++..+++++++++++++++
 72
    65
 73
     2
 40
40.0
 49
37.5
 49
-2.5
  0
LTYPE
  2
LONG4
 70
    64
  3
+++++++++++++++..+++++++++++++++
 72
    65
 73
     2
 40
80.0
 49
75.0
 49
-5.0
  0
LTYPE
  2
LONG5
 70
    64
  3
----------  --  ----------  --  
 72
    65
 73
     4
 40
60.0
 49
37.5
 49
-7.5
 49
7.5
 49
-7.5
  0
LTYPE
  2
dashed
 70
   64
  3
-------   -------------   ------
 72
   65
 73
    2
 40
7.5
 49
6
 49
-1.5
  0
LTYPE
  2
dashed_spaced
 70
   64
  3
----        --------        ----
 72
   65
 73
    2
 40
12
 49
6
 49
-6
  0
LTYPE
  2
long_dashed_dotted
 70
   64
  3
------------- --- --------------
 72
   65
 73
    4
 40
15.25
 49
12
 49
-1.5
 49
0.25
 49
-1.5
  0
LTYPE
  2
long_dashed_double-dotted
 70
   64
  3
----------- --- --- ------------
 72
   65
 73
    6
 40
17
 49
12
 49
-1.5
 49
0.25
 49
-1.5
 49
0.25
 49
-1.5
  0
LTYPE
  2
long_dashed_triplicate-dotted
 70
   64
  3
--------- --- --- --- ----------
 72
   65
 73
    8
 40
18.75
 49
12
 49
-1.5
 49
0.25
 49
-1.5
 49
0.25
 49
-1.5
 49
0.25
 49
-1.5
  0
LTYPE
  2
dotted
 70
   64
  3
   -       -       -       -    
 72
   65
 73
    2
 40
1.75
 49
0.25
 49
-1.5
  0
LTYPE
  2
chain
 70
   64
  3
-------------- -- --------------
 72
   65
 73
    4
 40
18.5
 49
12
 49
-1.5
 49
3.5
 49
-1.5
  0
LTYPE
  2
chain_double_dash
 70
   64
  3
------------ -- -- -------------
 72
   65
 73
    6
 40
23.5
 49
12
 49
-1.5
 49
3.5
 49
-1.5
 49
3.5
 49
-1.5
  0
LTYPE
  2
dashed_dotted
 70
   64
  3
-----------     -     ----------
 72
   65
 73
    4
 40
9.25
 49
6
 49
-1.5
 49
0.25
 49
-1.5
  0
LTYPE
  2
double-dashed_dotted
 70
   64
  3
------   -----------   -   -----
 72
   65
 73
    6
 40
16.75
 49
6
 49
-1.5
 49
6
 49
-1.5
 49
0.25
 49
-1.5
  0
LTYPE
  2
dashed_double-dotted
 70
   64
  3
---------    -    -    ---------
 72
   65
 73
    6
 40
11
 49
6
 49
-1.5
 49
0.25
 49
-1.5
 49
0.25
 49
-1.5
  0
LTYPE
  2
double-dashed_double-dotted
 70
   64
  3
-----   ---------   -   -   ----
 72
   65
 73
    8
 40
18.5
 49
6
 49
-1.5
 49
6
 49
-1.5
 49
0.25
 49
-1.5
 49
0.25
 49
-1.5
  0
LTYPE
  2
dashed_triplicate-dotted
 70
   64
  3
-------    -    -    -    ------
 72
   65
 73
    8
 40
12.75
 49
6
 49
-1.5
 49
0.25
 49
-1.5
 49
0.25
 49
-1.5
 49
0.25
 49
-1.5
  0
LTYPE
  2
double-dashed_triplicate-dotted
 70
   64
  3
-----  ---------  -  -  -  -----
 72
   65
 73
   10
 40
20.25
 49
6
 49
-1.5
 49
6
 49
-1.5
 49
0.25
 49
-1.5
 49
0.25
 49
-1.5
 49
0.25
 49
-1.5
  0
LTYPE
  2
undefined
 70
   64
  3
--------------------------------
 72
   65
 73
    0
 40
0
  0
LTYPE
  2
_
 70
   64
  3
                                
 72
   65
 73
    0
 40
0
  0
LTYPE
  2
__18
 70
   64
  3
                                
 72
   65
 73
    0
 40
0
  0
LTYPE
  2
__19
 70
   64
  3
                                
 72
   65
 73
    0
 40
0
  0
LTYPE
  2
__20
 70
   64
  3
                                
 72
   65
 73
    0
 40
0
  0
LTYPE
  2
__21
 70
   64
  3
                                
 72
   65
 73
    0
 40
0
  0
LTYPE
  2
__22
 70
   64
  3
                                
 72
   65
 73
    0
 40
0
  0
LTYPE
  2
__23
 70
   64
  3
                                
 72
   65
 73
    0
 40
0
  0
LTYPE
  2
__24
 70
   64
  3
                                
 72
   65
 73
    0
 40
0
  0
LTYPE
  2
__25
 70
   64
  3
                                
 72
   65
 73
    0
 40
0
  0
LTYPE
  2
__26
 70
   64
  3
                                
 72
   65
 73
    0
 40
0
  0
LTYPE
  2
__27
 70
   64
  3
                                
 72
   65
 73
    0
 40
0
  0
LTYPE
  2
__28
 70
   64
  3
                                
 72
   65
 73
    0
 40
0
  0
LTYPE
  2
__29
 70
   64
  3
                                
 72
   65
 73
    0
 40
0
  0
LTYPE
  2
__30
 70
   64
  3
                                
 72
   65
 73
    0
 40
0
  0
LTYPE
  2
__31
 70
   64
  3
                                
 72
   65
 73
    0
 40
0
  0
LTYPE
  2
__32
 70
   64
  3
                                
 72
   65
 73
    0
 40
0
  0
ENDTAB
  0
TABLE
  2
STYLE
  5
3
100
AcDbSymbolTable
 70
     1
  0
STYLE
  5
10
100
AcDbSymbolTableRecord
100
AcDbTextStyleTableRecord
  2
STANDARD
 70
     0
 40
0.0
 41
1.0
 50
0.0
 71
     0
 42
0.2
  3
txt
  4
bigfont.shx
  0
STYLE
  5
26
100
AcDbSymbolTableRecord
100
AcDbTextStyleTableRecord
  2
TATEGAKI
 70
    68
 40
0.0
 41
1.0
 50
0.0
 71
     0
 42
1.0
  3
txt
  4
bigfont.shx
  0
ENDTAB
  0
TABLE
  2
LAYER
 70
    3
  0
LAYER
  2
_0-0_0
 70
   64
 62
    7
  6
CONTINUOUS
  0
LAYER
  2
_0-1_URIMAT
 70
   64
 62
    7
  6
CONTINUOUS
  0
LAYER
  2
ADD_LINE
 70
   64
 62
    7
  6
CONTINUOUS
  0
ENDTAB
  0
ENDSEC
  0
SECTION
  2
BLOCKS
  0
ENDSEC
  0
SECTION
  2
ENTITIES
  0
LINE
  8
_0-1_URIMAT
  6
CONTINUOUS
 62
    7
 10
1498.0394678291363
 20
935.99005486185308
 11
1498.0394678291363
 21
935.99005486185308
  0
LINE
  8
_0-1_URIMAT
  6
CONTINUOUS
 62
    7
 10
1498.0394678291363
 20
935.99005486185308
 11
1497.7814956964843
 21
935.78887094174297
  0
LINE
  8
_0-1_URIMAT
  6
CONTINUOUS
 62
    7
 10
624.01743942765256
 20
265.2293710449781
 11
624.01743942765256
 21
265.2293710449781
  0
LINE
  8
_0-1_URIMAT
  6
CONTINUOUS
 62
    7
 10
624.01743942765256
 20
265.2293710449781
 11
624.20314018315514
 21
264.73830755938081
  0
LINE
  8
_0-1_URIMAT
  6
CONTINUOUS
 62
    7
 10
624.20314018315514
 20
264.73830755938081
 11
624.47122180436895
 21
264.28697759879338
  0
LINE
  8
_0-1_URIMAT
  6
CONTINUOUS
 62
    7
 10
624.47122180436895
 20
264.28697759879338
 11
624.8135387668891
 21
263.88909459568424
  0
LINE
  8
_0-1_URIMAT
  6
CONTINUOUS
 62
    7
 10
624.8135387668891
 20
263.88909459568424
 11
625.21968994303028
 21
263.55674802376438
  0
LINE
  8
_0-1_URIMAT
  6
CONTINUOUS
 62
    7
 10
625.21968994303028
 20
263.55674802376438
 11
625.67733463482784
 21
263.30003606544613
  0
LINE
  8
_0-1_URIMAT
  6
CONTINUOUS
 62
    7
 10
625.67733463482784
 20
263.30003606544613
 11
626.17256753990091
 21
263.12675878368037
  0
LINE
  8
_0-1_URIMAT
  6
CONTINUOUS
 62
    7
 10
626.17256753990091
 20
263.12675878368037
 11
626.69034125702864
 21
263.04218112099113
  0
LINE
  8
_0-1_URIMAT
  6
CONTINUOUS
 62
    7
 10
626.69034125702864
 20
263.04218112099113
 11
626.91425164391853
 21
263.03382106730987
  0
LINE
  8
_0-1_URIMAT
  6
CONTINUOUS
 62
    7
 10
843.31567084760877
 20
263.03382106730987
 11
843.31567084760877
 21
263.03382106730987
  0
LINE
  8
_0-1_URIMAT
  6
CONTINUOUS
 62
    7
 10
843.31567084760877
 20
263.03382106730987
 11
843.83829677958124
 21
263.07961207095826
  0
LINE
  8
_0-1_URIMAT
  6
CONTINUOUS
 62
    7
 10
843.83829677958124
 20
263.07961207095826
 11
844.3450378712115
 21
263.21553522269186
  0
LINE
  8
_0-1_URIMAT
  6
CONTINUOUS
 62
    7
 10
844.3450378712115
 20
263.21553522269186
 11
844.82049705085341
 21
263.43746056632556
  0
LINE
  8
_0-1_URIMAT
  6
CONTINUOUS
 62
    7
 10
844.82049705085341
 20
263.43746056632556
 11
845.25022773192779
 21
263.73864501259276
  0
LINE
  8
_0-1_URIMAT
  6
CONTINUOUS
 62
    7
 10
845.25022773192779
 20
263.73864501259276
 11
845.62117276514425
 21
264.10993722450029
  0
LINE
  8
_0-1_URIMAT
  6
CONTINUOUS
 62
    7
 10
845.62117276514425
 20
264.10993722450029
 11
845.9220611733757
 21
264.54005567607231
  0
LINE
  8
_0-1_URIMAT
  6
CONTINUOUS
 62
    7
 10
845.9220611733757
 20
264.54005567607231
 11
846.1437506145952
 21
265.01593143580822
  0
LINE
  8
_0-1_URIMAT
  6
CONTINUOUS
 62
    7
 10
846.1437506145952
 20
265.01593143580822
 11
846.21258512005954
 21
265.22973377204493
  0
LINE
  8
_0-1_URIMAT
  6
CONTINUOUS
 62
    7
 10
1609.4166028431959
 20
266.10149489603645
 11
1609.307103935477
 21
265.29638992899117
  0
LINE
  8
_0-1_URIMAT
  6
CONTINUOUS
 62
    7
 10
1485.8668370898199
 20
886.00791940591648
 11
1546.5398362039891
 21
936.8968082437824
  0
LINE
  8
_0-1_URIMAT
  6
CONTINUOUS
 62
    7
 10
1546.5398362039891
 20
936.8968082437824
 11
1576.9314011868975
 21
962.43787034073045
  0
LINE
  8
_0-1_URIMAT
  6
CONTINUOUS
 62
    7
 10
1576.9314011868975
 20
962.43787034073045
 11
1607.1449320047429
 21
988.29142218111314
  0
LINE
  8
_0-1_URIMAT
  6
CONTINUOUS
 62
    7
 10
1486.7481998986891
 20
808.54611833974979
 11
1488.0349003874839
 21
818.38388964628188
  0
LINE
  8
_0-1_URIMAT
  6
CONTINUOUS
 62
    7
 10
1488.0349003874839
 20
818.38388964628188
 11
1488.9670228146169
 21
828.17991214892367
  0
LINE
  8
_0-1_URIMAT
  6
CONTINUOUS
 62
    7
 10
1488.9670228146169
 20
828.17991214892367
 11
1489.488871523938
 21
837.93053214998292
  0
LINE
  8
_0-1_URIMAT
  6
CONTINUOUS
 62
    7
 10
1489.488871523938
 20
837.93053214998292
 11
1489.546574435328
 21
847.63211519635319
  0
LINE
  8
_0-1_URIMAT
  6
CONTINUOUS
 62
    7
 10
1489.546574435328
 20
847.63211519635319
 11
1489.1575939142958
 21
857.28609166708827
  0
LINE
  8
_0-1_URIMAT
  6
CONTINUOUS
 62
    7
 10
1489.1575939142958
 20
857.28609166708827
 11
1488.3580721096739
 21
866.89531238844574
  0
LINE
  8
_0-1_URIMAT
  6
CONTINUOUS
 62
    7
 10
1488.3580721096739
 20
866.89531238844574
 11
1487.225726363026
 21
876.46616722599242
  0
LINE
  8
_0-1_URIMAT
  6
CONTINUOUS
 62
    7
 10
1487.225726363026
 20
876.46616722599242
 11
1485.866835994215
 21
886.00791848350377
  0
LINE
  8
_0-1_URIMAT
  6
CONTINUOUS
 62
    7
 10
1411.5134345082319
 20
668.35220427568424
 11
1418.4360766465338
 21
675.09210647917279
  0
LINE
  8
_0-1_URIMAT
  6
CONTINUOUS
 62
    7
 10
1418.4360766465338
 20
675.09210647917279
 11
1425.0504043180208
 21
682.40273084498051
  0
LINE
  8
_0-1_URIMAT
  6
CONTINUOUS
 62
    7
 10
1425.0504043180208
 20
682.40273084498051
 11
1431.3491153081295
 21
690.18742510845163
  0
LINE
  8
_0-1_URIMAT
  6
CONTINUOUS
 62
    7
 10
1431.3491153081295
 20
690.18742510845163
 11
1437.2847337002556
 21
698.24640383085079
  0
LINE
  8
_0-1_URIMAT
  6
CONTINUOUS
 62
    7
 10
1437.2847337002556
 20
698.24640383085079
 11
1442.9229235688521
 21
706.52264400969011
  0
LINE
  8
_0-1_URIMAT
  6
CONTINUOUS
 62
    7
 10
1442.9229235688521
 20
706.52264400969011
 11
1448.3130229042988
 21
714.98368398194259
  0
LINE
  8
_0-1_URIMAT
  6
CONTINUOUS
 62
    7
 10
1448.3130229042988
 20
714.98368398194259
 11
1453.4986540800964
 21
723.60122905882974
  0
LINE
  8
_0-1_URIMAT
  6
CONTINUOUS
 62
    7
 10
1453.4986540800964
 20
723.60122905882974
 11
1458.5018495788915
 21
732.36135700827185
  0
LINE
  8
_0-1_URIMAT
  6
CONTINUOUS
 62
    7
 10
1458.5018495788915
 20
732.36135700827185
 11
1463.2972847639173
 21
741.28116353498944
  0
LINE
  8
_0-1_URIMAT
  6
CONTINUOUS
 62
    7
 10
1463.2972847639173
 20
741.28116353498944
 11
1467.8433295857425
 21
750.3884000050059
  0
LINE
  8
_0-1_URIMAT
  6
CONTINUOUS
 62
    7
 10
1467.8433295857425
 20
750.3884000050059
 11
1472.1136062481805
 21
759.69999827421088
  0
LINE
  8
_0-1_URIMAT
  6
CONTINUOUS
 62
    7
 10
1472.1136062481805
 20
759.69999827421088
 11
1476.0712899499026
 21
769.19563639782302
  0
LINE
  8
_0-1_URIMAT
  6
CONTINUOUS
 62
    7
 10
1476.0712899499026
 20
769.19563639782302
 11
1479.5970154175336
 21
778.80855848910368
  0
LINE
  8
_0-1_URIMAT
  6
CONTINUOUS
 62
    7
 10
1479.5970154175336
 20
778.80855848910368
 11
1482.5800845879348
 21
788.56315648923168
  0
LINE
  8
_0-1_URIMAT
  6
CONTINUOUS
 62
    7
 10
1482.5800845879348
 20
788.56315648923168
 11
1484.9603537416974
 21
798.47648411151476
  0
LINE
  8
_0-1_URIMAT
  6
CONTINUOUS
 62
    7
 10
1484.9603537416974
 20
798.47648411151476
 11
1486.74819989869
 21
808.54611833974979
  0
LINE
  8
_0-1_URIMAT
  6
CONTINUOUS
 62
    7
 10
1411.5134345082331
 20
668.35220427568424
 11
1403.4529699436143
 21
661.28981248380841
  0
LINE
  8
_0-1_URIMAT
  6
CONTINUOUS
 62
    7
 10
1403.4529699436143
 20
661.28981248380841
 11
1395.2288331022168
 21
654.67902569613477
  0
LINE
  8
_0-1_URIMAT
  6
CONTINUOUS
 62
    7
 10
1395.2288331022168
 20
654.67902569613477
 11
1386.8451760829434
 21
648.51250843008529
  0
LINE
  8
_0-1_URIMAT
  6
CONTINUOUS
 62
    7
 10
1386.8451760829434
 20
648.51250843008529
 11
1378.350431353785
 21
642.7049668421539
  0
LINE
  8
_0-1_URIMAT
  6
CONTINUOUS
 62
    7
 10
1378.350431353785
 20
642.7049668421539
 11
1361.2347648153506
 21
631.80043859211355
  0
LINE
  8
_0-1_URIMAT
  6
CONTINUOUS
 62
    7
 10
1361.2347648153506
 20
631.80043859211355
 11
1344.1096021917569
 21
621.55799246806986
  0
LINE
  8
_0-1_URIMAT
  6
CONTINUOUS
 62
    7
 10
1259.7450126068808
 20
599.82326650923073
 11
1259.8622170208384
 21
599.80884117789264
  0
LINE
  8
_0-1_URIMAT
  6
CONTINUOUS
 62
    7
 10
1259.8622170208384
 20
599.80884117789264
 11
1260.1974863171199
 21
599.77376176264897
  0
LINE
  8
_0-1_URIMAT
  6
CONTINUOUS
 62
    7
 10
1260.1974863171199
 20
599.77376176264897
 11
1260.7510799812525
 21
599.72079015678195
  0
LINE
  8
_0-1_URIMAT
  6
CONTINUOUS
 62
    7
 10
1260.7510799812525
 20
599.72079015678195
 11
1261.5249570195385
 21
599.65478637405726
  0
LINE
  8
_0-1_URIMAT
  6
CONTINUOUS
 62
    7
 10
1261.5249570195385
 20
599.65478637405726
 11
1262.5184873528428
 21
599.58471244569761
  0
LINE
  8
_0-1_URIMAT
  6
CONTINUOUS
 62
    7
 10
1262.5184873528428
 20
599.58471244569761
 11
1263.7185609458394
 21
599.52040828073893
  0
LINE
  8
_0-1_URIMAT
  6
CONTINUOUS
 62
    7
 10
1263.7185609458394
 20
599.52040828073893
 11
1265.1198571334234
 21
599.47219615004075
  0
LINE
  8
_0-1_URIMAT
  6
CONTINUOUS
 62
    7
 10
1265.1198571334234
 20
599.47219615004075
 11
1266.7193885925751
 21
599.45199878110531
  0
LINE
  8
_0-1_URIMAT
  6
CONTINUOUS
 62
    7
 10
1266.7193885925751
 20
599.45199878110531
 11
1268.5148537999095
 21
599.47193780463635
  0
LINE
  8
_0-1_URIMAT
  6
CONTINUOUS
 62
    7
 10
1268.5148537999095
 20
599.47193780463635
 11
1270.5058590183514
 21
599.54343456530659
  0
LINE
  8
_0-1_URIMAT
  6
CONTINUOUS
 62
    7
 10
1270.5058590183514
 20
599.54343456530659
 11
1272.6937279376427
 21
599.67767570140313
  0
LINE
  8
_0-1_URIMAT
  6
CONTINUOUS
 62
    7
 10
1272.6937279376427
 20
599.67767570140313
 11
1275.0772850403698
 21
599.88527495252401
  0
LINE
  8
_0-1_URIMAT
  6
CONTINUOUS
 62
    7
 10
1275.0772850403698
 20
599.88527495252401
 11
1280.3521562958912
 21
600.53863179719337
  0
LINE
  8
_0-1_URIMAT
  6
CONTINUOUS
 62
    7
 10
1280.3521562958912
 20
600.53863179719337
 11
1286.2847840735064
 21
601.51572329783414
  0
LINE
  8
_0-1_URIMAT
  6
CONTINUOUS
 62
    7
 10
1286.2847840735064
 20
601.51572329783414
 11
1292.8288469406165
 21
602.76676912517086
  0
LINE
  8
_0-1_URIMAT
  6
CONTINUOUS
 62
    7
 10
1292.8288469406165
 20
602.76676912517086
 11
1299.8859811819313
 21
604.17942344733125
  0
LINE
  8
_0-1_URIMAT
  6
CONTINUOUS
 62
    7
 10
1299.8859811819313
 20
604.17942344733125
 11
1303.6056880170699
 21
604.91990565731498
  0
LINE
  8
_0-1_URIMAT
  6
CONTINUOUS
 62
    7
 10
1303.6056880170699
 20
604.91990565731498
 11
1307.3326149541308
 21
605.88944122511816
  0
LINE
  8
_0-1_URIMAT
  6
CONTINUOUS
 62
    7
 10
1307.3326149541308
 20
605.88944122511816
 11
1314.70845637405
 21
608.54524854328224
  0
LINE
  8
_0-1_URIMAT
  6
CONTINUOUS
 62
    7
 10
1314.70845637405
 20
608.54524854328224
 11
1329.5328276001241
 21
614.33239922471693
  0
LINE
  8
_0-1_URIMAT
  6
CONTINUOUS
 62
    7
 10
1329.5328276001241
 20
614.33239922471693
 11
1336.8733372323542
 21
617.69777768675714
  0
LINE
  8
_0-1_URIMAT
  6
CONTINUOUS
 62
    7
 10
1336.8733372323542
 20
617.69777768675714
 11
1344.1096949299219
 21
621.55779048830493
  0
LINE
  8
_0-1_URIMAT
  6
CONTINUOUS
 62
    7
 10
1259.7450126068799
 20
599.82326650923755
 11
1261.2623878785609
 21
588.84437553884697
  0
LINE
  8
_0-1_URIMAT
  6
CONTINUOUS
 62
    7
 10
1261.2623878785609
 20
588.84437553884697
 11
1263.1841913664045
 21
577.91776969960426
  0
LINE
  8
_0-1_URIMAT
  6
CONTINUOUS
 62
    7
 10
1263.1841913664045
 20
577.91776969960426
 11
1265.4712139817293
 21
567.05034060089508
  0
LINE
  8
_0-1_URIMAT
  6
CONTINUOUS
 62
    7
 10
1265.4712139817293
 20
567.05034060089508
 11
1268.0797055159684
 21
556.2444534298263
  0
LINE
  8
_0-1_URIMAT
  6
CONTINUOUS
 62
    7
 10
1268.0797055159684
 20
556.2444534298263
 11
1270.9647833835474
 21
545.49756494918551
  0
LINE
  8
_0-1_URIMAT
  6
CONTINUOUS
 62
    7
 10
1270.9647833835474
 20
545.49756494918551
 11
1274.0821255991436
 21
534.80385798758811
  0
LINE
  8
_0-1_URIMAT
  6
CONTINUOUS
 62
    7
 10
1274.0821255991436
 20
534.80385798758811
 11
1280.8492371565293
 21
513.54563718299084
  0
LINE
  8
_0-1_URIMAT
  6
CONTINUOUS
 62
    7
 10
1280.8492371565293
 20
513.54563718299084
 11
1288.1034969547049
 21
492.40042862250305
  0
LINE
  8
_0-1_URIMAT
  6
CONTINUOUS
 62
    7
 10
1288.1034969547049
 20
492.40042862250305
 11
1295.6772168806994
 21
471.30306620756067
  0
LINE
  8
_0-1_URIMAT
  6
CONTINUOUS
 62
    7
 10
1295.6772168806994
 20
471.30306620756067
 11
1303.5214297901054
 21
450.21256574037619
  0
LINE
  8
_0-1_URIMAT
  6
CONTINUOUS
 62
    7
 10
1303.5214297901054
 20
450.21256574037619
 11
1311.6794499134537
 21
429.12124180883762
  0
LINE
  8
_0-1_URIMAT
  6
CONTINUOUS
 62
    7
 10
1311.6794499134537
 20
429.12124180883762
 11
1320.2597551657563
 21
408.04945646688889
  0
LINE
  8
_0-1_URIMAT
  6
CONTINUOUS
 62
    7
 10
1320.2597551657563
 20
408.04945646688889
 11
1329.402906696682
 21
387.03714613697871
  0
LINE
  8
_0-1_URIMAT
  6
CONTINUOUS
 62
    7
 10
1329.402906696682
 20
387.03714613697871
 11
1339.2427817795273
 21
366.14071967376133
  0
LINE
  8
_0-1_URIMAT
  6
CONTINUOUS
 62
    7
 10
1339.2427817795273
 20
366.14071967376133
 11
1344.4502930449298
 21
355.76085748368961
  0
LINE
  8
_0-1_URIMAT
  6
CONTINUOUS
 62
    7
 10
1344.4502930449298
 20
355.76085748368961
 11
1349.8524602454021
 21
345.4389908813298
  0
LINE
  8
_0-1_URIMAT
  6
CONTINUOUS
 62
    7
 10
1349.8524602454021
 20
345.4389908813298
 11
1361.2146086052598
 21
324.9878650314074
  0
LINE
  8
_0-1_URIMAT
  6
CONTINUOUS
 62
    7
 10
1361.2146086052598
 20
324.9878650314074
 11
1373.2016272484424
 21
304.7773924618873
  0
LINE
  8
_0-1_URIMAT
  6
CONTINUOUS
 62
    7
 10
1373.2016272484424
 20
304.7773924618873
 11
1397.8648466381989
 21
264.55930398065424
  0
LINE
  8
_0-1_URIMAT
  6
CONTINUOUS
 62
    7
 10
1609.4166028431959
 20
322.06735682444332
 11
1609.4166028431959
 21
331.9559781565149
  0
LINE
  8
_0-1_URIMAT
  6
CONTINUOUS
 62
    7
 10
1609.4166028431959
 20
331.9559781565149
 11
1609.4166028431961
 21
341.96551832079535
  0
LINE
  8
_0-1_URIMAT
  6
CONTINUOUS
 62
    7
 10
1609.4166028431961
 20
341.96551832079535
 11
1609.4166028431959
 21
347.39218119821049
  0
LINE
  8
_0-1_URIMAT
  6
CONTINUOUS
 62
    7
 10
1609.4166028431959
 20
347.39218119821049
 11
1609.4166028431959
 21
352.55215402418599
  0
LINE
  8
_0-1_URIMAT
  6
CONTINUOUS
 62
    7
 10
1609.4166028431959
 20
352.55215402418599
 11
1609.4166028431959
 21
357.44543679872174
  0
LINE
  8
_0-1_URIMAT
  6
CONTINUOUS
 62
    7
 10
1609.4166028431959
 20
357.44543679872174
 11
1609.4166028431957
 21
362.07202952181779
  0
LINE
  8
_0-1_URIMAT
  6
CONTINUOUS
 62
    7
 10
1609.4166028431957
 20
362.07202952181779
 11
1609.4166028431959
 21
364.40421548065859
  0
LINE
  8
_0-1_URIMAT
  6
CONTINUOUS
 62
    7
 10
1609.4166028431959
 20
364.40421548065859
 11
1609.4166028431959
 21
367.02568069242408
  0
LINE
  8
_0-1_URIMAT
  6
CONTINUOUS
 62
    7
 10
1609.4166028431959
 20
367.02568069242408
 11
1609.4166028431959
 21
372.17763004245159
  0
LINE
  8
_0-1_URIMAT
  6
CONTINUOUS
 62
    7
 10
1609.4166028431959
 20
372.17763004245159
 11
1609.4166028431959
 21
382.11760444849267
  0
LINE
  8
_0-1_URIMAT
  6
CONTINUOUS
 62
    7
 10
1609.4166028431959
 20
382.11760444849267
 11
1609.4166028431959
 21
386.99811426713887
  0
LINE
  8
_0-1_URIMAT
  6
CONTINUOUS
 62
    7
 10
1609.4166028431959
 20
386.99811426713887
 11
1609.4166028431959
 21
392.15964632523105
  0
LINE
  8
_0-1_URIMAT
  6
CONTINUOUS
 62
    7
 10
1609.4166028431959
 20
392.15964632523105
 11
1609.4166028431959
 21
402.28934983807357
  0
LINE
  8
_0-1_URIMAT
  6
CONTINUOUS
 62
    7
 10
1609.4166028431959
 20
402.28934983807357
 11
1609.4166028431957
 21
412.37107778766767
  0
LINE
  8
_0-1_URIMAT
  6
CONTINUOUS
 62
    7
 10
1609.4166028431957
 20
412.37107778766767
 11
1609.4166028431959
 21
422.61718491011492
  0
LINE
  8
_0-1_URIMAT
  6
CONTINUOUS
 62
    7
 10
1609.4166028431959
 20
422.61718491011492
 11
1609.4166028431957
 21
443.10335536887743
  0
LINE
  8
_0-1_URIMAT
  6
CONTINUOUS
 62
    7
 10
1609.4166028431957
 20
443.10335536887743
 11
1609.4166028431957
 21
484.50663831271378
  0
LINE
  8
_0-1_URIMAT
  6
CONTINUOUS
 62
    7
 10
1609.4166028431957
 20
484.50663831271378
 11
1609.4166028431959
 21
526.32201437283674
  0
LINE
  8
_0-1_URIMAT
  6
CONTINUOUS
 62
    7
 10
1609.4166028431959
 20
526.32201437283674
 11
1609.4166028431959
 21
547.18528200489186
  0
LINE
  8
_0-1_URIMAT
  6
CONTINUOUS
 62
    7
 10
1609.4166028431959
 20
547.18528200489186
 11
1609.4166028431957
 21
568.51077242876669
  0
LINE
  8
_0-1_URIMAT
  6
CONTINUOUS
 62
    7
 10
1609.4166028431957
 20
568.51077242876669
 11
1609.4166028431955
 21
589.46710243111647
  0
LINE
  8
_0-1_URIMAT
  6
CONTINUOUS
 62
    7
 10
1609.4166028431955
 20
589.46710243111647
 11
1609.4166028431959
 21
610.8390810446815
  0
LINE
  8
_0-1_URIMAT
  6
CONTINUOUS
 62
    7
 10
1609.4166028431959
 20
610.8390810446815
 11
1609.4166028431959
 21
653.51404121661153
  0
LINE
  8
_0-1_URIMAT
  6
CONTINUOUS
 62
    7
 10
1609.4166028431959
 20
653.51404121661153
 11
1609.4166028431961
 21
739.07755310271932
  0
LINE
  8
_0-1_URIMAT
  6
CONTINUOUS
 62
    7
 10
1609.4166028431961
 20
739.07755310271932
 11
1609.4166028431959
 21
781.32920804452373
  0
LINE
  8
_0-1_URIMAT
  6
CONTINUOUS
 62
    7
 10
1609.4166028431959
 20
781.32920804452373
 11
1609.4166028431959
 21
823.14385751951681
  0
LINE
  8
_0-1_URIMAT
  6
CONTINUOUS
 62
    7
 10
1609.4166028431959
 20
823.14385751951681
 11
1609.4166028431959
 21
990.26990284094074
  0
LINE
  8
_0-1_URIMAT
  6
CONTINUOUS
 62
    7
 10
1609.4166028412948
 20
266.10149489602576
 11
1609.4166028412948
 21
322.06730383974604
  0
LINE
  8
_0-1_URIMAT
  6
CONTINUOUS
 62
    7
 10
1609.4166028431959
 20
1018.140880879915
 11
1592.5786175001298
 21
1006.059941914464
  0
LINE
  8
_0-1_URIMAT
  6
CONTINUOUS
 62
    7
 10
1498.076364629916
 20
936.01747183392831
 11
1498.039468322906
 21
935.99005512384314
  0
LINE
  8
_0-1_URIMAT
  6
CONTINUOUS
 62
    7
 10
1576.5816643062989
 20
994.38789740037759
 11
1509.954516161302
 21
944.85807927745054
  0
LINE
  8
_0-1_URIMAT
  6
CONTINUOUS
 62
    7
 10
1592.5786175001298
 20
1006.059941914464
 11
1576.8825328337929
 21
994.60878766874634
  0
LINE
  8
_0-1_URIMAT
  6
CONTINUOUS
 62
    7
 10
1498.039471963018
 20
935.99005806426441
 11
1498.039497465023
 21
935.98651549629732
  0
LINE
  8
_0-1_URIMAT
  6
CONTINUOUS
 62
    7
 10
1486.722770213277
 20
927.38533314710957
 11
1489.1978709479537
 21
929.22619680638263
  0
LINE
  8
_0-1_URIMAT
  6
CONTINUOUS
 62
    7
 10
1489.1978709479537
 20
929.22619680638263
 11
1491.3596660954315
 21
930.85102800266054
  0
LINE
  8
_0-1_URIMAT
  6
CONTINUOUS
 62
    7
 10
1491.3596660954315
 20
930.85102800266054
 11
1493.2278917861294
 21
932.26875770502351
  0
LINE
  8
_0-1_URIMAT
  6
CONTINUOUS
 62
    7
 10
1493.2278917861294
 20
932.26875770502351
 11
1494.806754275153
 21
933.47711257670198
  0
LINE
  8
_0-1_URIMAT
  6
CONTINUOUS
 62
    7
 10
1494.806754275153
 20
933.47711257670198
 11
1496.095095048797
 21
934.47000626199383
  0
LINE
  8
_0-1_URIMAT
  6
CONTINUOUS
 62
    7
 10
1496.095095048797
 20
934.47000626199383
 11
1497.0854070440154
 21
935.23784010437066
  0
LINE
  8
_0-1_URIMAT
  6
CONTINUOUS
 62
    7
 10
1497.0854070440154
 20
935.23784010437066
 11
1497.753931116719
 21
935.75941808851916
  0
LINE
  8
_0-1_URIMAT
  6
CONTINUOUS
 62
    7
 10
1497.753931116719
 20
935.75941808851916
 11
1498.0394974650218
 21
935.98651549629732
  0
LINE
  8
_0-1_URIMAT
  6
CONTINUOUS
 62
    7
 10
1609.4166028431959
 20
1017.897276815098
 11
1609.4166028431959
 21
1018.135536574096
  0
LINE
  8
_0-1_URIMAT
  6
CONTINUOUS
 62
    7
 10
1609.4166028431959
 20
1017.1673043013639
 11
1609.4166028431959
 21
1017.897275105424
  0
LINE
  8
_0-1_URIMAT
  6
CONTINUOUS
 62
    7
 10
1609.4166028431959
 20
1015.949170713446
 11
1609.4166028431959
 21
1017.1673043013639
  0
LINE
  8
_0-1_URIMAT
  6
CONTINUOUS
 62
    7
 10
1609.4166028431959
 20
1015.949151257883
 11
1609.4166028431959
 21
1015.949170713444
  0
LINE
  8
_0-1_URIMAT
  6
CONTINUOUS
 62
    7
 10
1609.4166028431959
 20
1015.1580958147759
 11
1609.4166028431959
 21
1015.949151257883
  0
LINE
  8
_0-1_URIMAT
  6
CONTINUOUS
 62
    7
 10
1609.4166028431959
 20
1014.2448415433999
 11
1609.4166028431959
 21
1015.1580854301099
  0
LINE
  8
_0-1_URIMAT
  6
CONTINUOUS
 62
    7
 10
1486.7481998986809
 20
808.54611833969761
 11
1485.428986793463
 21
808.67460473256028
  0
LINE
  8
_0-1_URIMAT
  6
CONTINUOUS
 62
    7
 10
1485.428986793463
 20
808.67460473256028
 11
1484.3337860191459
 21
808.74672752299568
  0
LINE
  8
_0-1_URIMAT
  6
CONTINUOUS
 62
    7
 10
1484.3337860191459
 20
808.74672752299568
 11
1483.468216392659
 21
808.77123745860069
  0
LINE
  8
_0-1_URIMAT
  6
CONTINUOUS
 62
    7
 10
1483.468216392659
 20
808.77123745860069
 11
1482.8193685666856
 21
808.75821896581896
  0
LINE
  8
_0-1_URIMAT
  6
CONTINUOUS
 62
    7
 10
1482.8193685666856
 20
808.75821896581896
 11
1482.0646607411924
 21
808.65989679557037
  0
LINE
  8
_0-1_URIMAT
  6
CONTINUOUS
 62
    7
 10
1482.0646607411924
 20
808.65989679557037
 11
1481.7967685342589
 21
808.48005042484862
  0
LINE
  8
_0-1_URIMAT
  6
CONTINUOUS
 62
    7
 10
1485.8668356083448
 20
886.00791825729504
 11
1483.8970096777707
 21
885.45897646572529
  0
LINE
  8
_0-1_URIMAT
  6
CONTINUOUS
 62
    7
 10
1483.8970096777707
 20
885.45897646572529
 11
1482.3558220012373
 21
884.81919586410037
  0
LINE
  8
_0-1_URIMAT
  6
CONTINUOUS
 62
    7
 10
1482.3558220012373
 20
884.81919586410037
 11
1481.4013269262729
 21
884.15418924601351
  0
LINE
  8
_0-1_URIMAT
  6
CONTINUOUS
 62
    7
 10
1481.4013269262729
 20
884.15418924601351
 11
1481.1314146232209
 21
883.53215623916889
  0
LINE
  8
_0-1_URIMAT
  6
CONTINUOUS
 62
    7
 10
1485.866835034008
 20
886.00792208083964
 11
1484.5089248811391
 21
893.29379240863386
  0
LINE
  8
_0-1_URIMAT
  6
CONTINUOUS
 62
    7
 10
1484.5089248811391
 20
893.29379240863386
 11
1483.5747918342799
 21
900.27043492442999
  0
LINE
  8
_0-1_URIMAT
  6
CONTINUOUS
 62
    7
 10
1483.5747918342799
 20
900.27043492442999
 11
1483.0385714019812
 21
906.82046956489159
  0
LINE
  8
_0-1_URIMAT
  6
CONTINUOUS
 62
    7
 10
1483.0385714019812
 20
906.82046956489159
 11
1482.9474338527679
 21
912.76818894623136
  0
LINE
  8
_0-1_URIMAT
  6
CONTINUOUS
 62
    7
 10
1482.9474338527679
 20
912.76818894623136
 11
1483.0511854020837
 21
915.48515234922615
  0
LINE
  8
_0-1_URIMAT
  6
CONTINUOUS
 62
    7
 10
1483.0511854020837
 20
915.48515234922615
 11
1483.2596438505152
 21
917.97757739292376
  0
LINE
  8
_0-1_URIMAT
  6
CONTINUOUS
 62
    7
 10
1483.2596438505152
 20
917.97757739292376
 11
1483.5743134328004
 21
920.23442666991309
  0
LINE
  8
_0-1_URIMAT
  6
CONTINUOUS
 62
    7
 10
1483.5743134328004
 20
920.23442666991309
 11
1483.9981319525138
 21
922.24845969188413
  0
LINE
  8
_0-1_URIMAT
  6
CONTINUOUS
 62
    7
 10
1483.9981319525138
 20
922.24845969188413
 11
1484.5308622522561
 21
923.99539544799927
  0
LINE
  8
_0-1_URIMAT
  6
CONTINUOUS
 62
    7
 10
1484.5308622522561
 20
923.99539544799927
 11
1485.1638771737134
 21
925.43842222972193
  0
LINE
  8
_0-1_URIMAT
  6
CONTINUOUS
 62
    7
 10
1485.1638771737134
 20
925.43842222972193
 11
1485.8946774759742
 21
926.57176309188116
  0
LINE
  8
_0-1_URIMAT
  6
CONTINUOUS
 62
    7
 10
1485.8946774759742
 20
926.57176309188116
 11
1486.7227344824239
 21
927.38530625737462
  0
LINE
  8
_0-1_URIMAT
  6
CONTINUOUS
 62
    7
 10
1609.4166028431959
 20
1014.2448413032909
 11
1609.4165432945578
 21
1013.9911088129789
  0
LINE
  8
_0-1_URIMAT
  6
CONTINUOUS
 62
    7
 10
1609.4165432945578
 20
1013.9911088129789
 11
1609.4166028415816
 21
1013.4942746292466
  0
LINE
  8
_0-1_URIMAT
  6
CONTINUOUS
 62
    7
 10
1609.4166028415816
 20
1013.4942746292466
 11
1609.4165648865869
 21
1012.7635106173527
  0
LINE
  8
_0-1_URIMAT
  6
CONTINUOUS
 62
    7
 10
1609.4165648865869
 20
1012.7635106173527
 11
1609.4166030640326
 21
1011.8139988533928
  0
LINE
  8
_0-1_URIMAT
  6
CONTINUOUS
 62
    7
 10
1609.4166030640326
 20
1011.8139988533928
 11
1609.416600310712
 21
1009.3364430009621
  0
LINE
  8
_0-1_URIMAT
  6
CONTINUOUS
 62
    7
 10
1609.416600310712
 20
1009.3364430009621
 11
1609.4166021713788
 21
1006.2292899125317
  0
LINE
  8
_0-1_URIMAT
  6
CONTINUOUS
 62
    7
 10
1609.4166021713788
 20
1006.2292899125317
 11
1609.4166031187944
 21
1002.6519307776945
  0
LINE
  8
_0-1_URIMAT
  6
CONTINUOUS
 62
    7
 10
1609.4166031187944
 20
1002.6519307776945
 11
1609.4166030727219
 21
998.73537220904893
  0
LINE
  8
_0-1_URIMAT
  6
CONTINUOUS
 62
    7
 10
1609.4166030727219
 20
998.73537220904893
 11
1609.4166028431959
 21
990.26990283663167
  0
LINE
  8
_0-1_URIMAT
  6
CONTINUOUS
 62
    7
 10
1486.6514520673799
 20
927.33332848207203
 11
1486.5324934200109
 21
927.24318595312945
  0
LINE
  8
_0-1_URIMAT
  6
CONTINUOUS
 62
    7
 10
1486.7227302992769
 20
927.38530364160988
 11
1486.6514520581429
 21
927.33332847523945
  0
LINE
  8
_0-1_URIMAT
  6
CONTINUOUS
 62
    7
 10
1344.100606427778
 20
628.17454484301492
 11
1344.1102180374089
 21
628.18001224150862
  0
LINE
  8
_0-1_URIMAT
  6
CONTINUOUS
 62
    7
 10
1606.406905317182
 20
263.08931754082368
 11
1607.2751104005849
 21
263.21736769841731
  0
LINE
  8
_0-1_URIMAT
  6
CONTINUOUS
 62
    7
 10
1607.2751104005849
 20
263.21736769841731
 11
1608.0961232335082
 21
263.60849447040936
  0
LINE
  8
_0-1_URIMAT
  6
CONTINUOUS
 62
    7
 10
1608.0961232335082
 20
263.60849447040936
 11
1608.8151031130421
 21
264.29477548169643
  0
LINE
  8
_0-1_URIMAT
  6
CONTINUOUS
 62
    7
 10
1608.8151031130421
 20
264.29477548169643
 11
1609.307103935477
 21
265.29638992899117
  0
LINE
  8
_0-1_URIMAT
  6
CONTINUOUS
 62
    7
 10
1400.45021782251
 20
263.08931754088484
 11
1399.6819065272998
 21
263.18911376490268
  0
LINE
  8
_0-1_URIMAT
  6
CONTINUOUS
 62
    7
 10
1399.6819065272998
 20
263.18911376490268
 11
1398.9630359289603
 21
263.48272496877928
  0
LINE
  8
_0-1_URIMAT
  6
CONTINUOUS
 62
    7
 10
1398.9630359289603
 20
263.48272496877928
 11
1397.8648466381989
 21
264.55930398065584
  0
LINE
  8
_0-1_URIMAT
  6
CONTINUOUS
 62
    7
 10
1400.45021782251
 20
263.08931754088484
 11
1400.7878235083076
 21
263.08931754081322
  0
LINE
  8
_0-1_URIMAT
  6
CONTINUOUS
 62
    7
 10
1400.7878235083076
 20
263.08931754081322
 11
1401.9050974442966
 21
263.08931754090497
  0
LINE
  8
_0-1_URIMAT
  6
CONTINUOUS
 62
    7
 10
1401.9050974442966
 20
263.08931754090497
 11
1403.7679467001769
 21
263.08931754081152
  0
LINE
  8
_0-1_URIMAT
  6
CONTINUOUS
 62
    7
 10
1403.7679467001769
 20
263.08931754081152
 11
1406.3598558353448
 21
263.08931754084414
  0
LINE
  8
_0-1_URIMAT
  6
CONTINUOUS
 62
    7
 10
1406.3598558353448
 20
263.08931754084414
 11
1409.6729350903756
 21
263.08931754088052
  0
LINE
  8
_0-1_URIMAT
  6
CONTINUOUS
 62
    7
 10
1409.6729350903756
 20
263.08931754088052
 11
1413.6136233017564
 21
263.08931754085915
  0
LINE
  8
_0-1_URIMAT
  6
CONTINUOUS
 62
    7
 10
1413.6136233017564
 20
263.08931754085915
 11
1418.1854566884403
 21
263.08931754085642
  0
LINE
  8
_0-1_URIMAT
  6
CONTINUOUS
 62
    7
 10
1418.1854566884403
 20
263.08931754085642
 11
1423.3503027631518
 21
263.08931754085415
  0
LINE
  8
_0-1_URIMAT
  6
CONTINUOUS
 62
    7
 10
1423.3503027631518
 20
263.08931754085415
 11
1429.0919577471299
 21
263.08931754082891
  0
LINE
  8
_0-1_URIMAT
  6
CONTINUOUS
 62
    7
 10
1429.0919577471299
 20
263.08931754082891
 11
1435.3021565456419
 21
263.08931754081675
  0
LINE
  8
_0-1_URIMAT
  6
CONTINUOUS
 62
    7
 10
1435.3021565456419
 20
263.08931754081675
 11
1441.9052392249288
 21
263.08931754082891
  0
LINE
  8
_0-1_URIMAT
  6
CONTINUOUS
 62
    7
 10
1441.9052392249288
 20
263.08931754082891
 11
1448.8982309753255
 21
263.08931754079867
  0
LINE
  8
_0-1_URIMAT
  6
CONTINUOUS
 62
    7
 10
1448.8982309753255
 20
263.08931754079867
 11
1456.2772301507156
 21
263.08931754080686
  0
LINE
  8
_0-1_URIMAT
  6
CONTINUOUS
 62
    7
 10
1456.2772301507156
 20
263.08931754080686
 11
1463.8681941910256
 21
263.08931754080049
  0
LINE
  8
_0-1_URIMAT
  6
CONTINUOUS
 62
    7
 10
1463.8681941910256
 20
263.08931754080049
 11
1479.2172661255563
 21
263.08931754083164
  0
LINE
  8
_0-1_URIMAT
  6
CONTINUOUS
 62
    7
 10
1479.2172661255563
 20
263.08931754083164
 11
1510.4791205551991
 21
263.08931754082266
  0
LINE
  8
_0-1_URIMAT
  6
CONTINUOUS
 62
    7
 10
1510.4791205551991
 20
263.08931754082266
 11
1542.1288154070562
 21
263.08931754082072
  0
LINE
  8
_0-1_URIMAT
  6
CONTINUOUS
 62
    7
 10
1542.1288154070562
 20
263.08931754082072
 11
1574.1039375472203
 21
263.08931754082368
  0
LINE
  8
_0-1_URIMAT
  6
CONTINUOUS
 62
    7
 10
1574.1039375472203
 20
263.08931754082368
 11
1606.406905317182
 21
263.08931754082368
  0
LINE
  8
_0-1_URIMAT
  6
CONTINUOUS
 62
    7
 10
1271.3620177705449
 20
605.92387079841159
 11
1269.5880036444036
 21
607.06600741142415
  0
LINE
  8
_0-1_URIMAT
  6
CONTINUOUS
 62
    7
 10
1269.5880036444036
 20
607.06600741142415
 11
1267.5556137204494
 21
607.62931823266058
  0
LINE
  8
_0-1_URIMAT
  6
CONTINUOUS
 62
    7
 10
1267.5556137204494
 20
607.62931823266058
 11
1265.4473364436805
 21
607.56325120173926
  0
LINE
  8
_0-1_URIMAT
  6
CONTINUOUS
 62
    7
 10
1265.4473364436805
 20
607.56325120173926
 11
1263.453670523258
 21
606.87354240205377
  0
LINE
  8
_0-1_URIMAT
  6
CONTINUOUS
 62
    7
 10
1263.453670523258
 20
606.87354240205377
 11
1261.7547523840316
 21
605.62256343385502
  0
LINE
  8
_0-1_URIMAT
  6
CONTINUOUS
 62
    7
 10
1261.7547523840316
 20
605.62256343385502
 11
1260.5038721148632
 21
603.92360516160647
  0
LINE
  8
_0-1_URIMAT
  6
CONTINUOUS
 62
    7
 10
1260.5038721148632
 20
603.92360516160647
 11
1259.8134839160325
 21
601.93045719700387
  0
LINE
  8
_0-1_URIMAT
  6
CONTINUOUS
 62
    7
 10
1259.8134839160325
 20
601.93045719700387
 11
1259.745012606847
 21
599.82326650927029
  0
LINE
  8
_0-1_URIMAT
  6
CONTINUOUS
 62
    7
 10
1498.039497465023
 20
935.98651549629732
 11
1497.9385979378801
 21
935.9101500548453
  0
LINE
  8
_0-1_URIMAT
  6
CONTINUOUS
 62
    7
 10
1486.4597299472079
 20
927.18587257260799
 11
1486.5324934109969
 21
927.24318594613555
  0
LINE
  8
_0-1_URIMAT
  6
CONTINUOUS
 62
    7
 10
1608.991607012352
 20
264.5582787793794
 11
1609.0386894855359
 21
264.64015782700289
  0
LINE
  8
_0-1_URIMAT
  6
CONTINUOUS
 62
    7
 10
1607.683601129778
 20
1016.9089352964789
 11
1609.416602292083
 21
1018.1408502737409
  0
LINE
  8
_0-1_URIMAT
  6
CONTINUOUS
 62
    7
 10
1593.6564942612978
 20
1006.8402589671829
 11
1604.824618678507
 21
1014.8705378867009
  0
LINE
  8
_0-1_URIMAT
  6
CONTINUOUS
 62
    7
 10
1575.9632158726431
 20
993.93369588386781
 11
1580.090649506734
 21
996.96112329437823
  0
LINE
  8
_0-1_URIMAT
  6
CONTINUOUS
 62
    7
 10
1537.060430300605
 20
965.08273928083633
 11
1550.879751093302
 21
975.37715027468721
  0
LINE
  8
_0-1_URIMAT
  6
CONTINUOUS
 62
    7
 10
1498.039624662138
 20
935.99021443703918
 11
1520.2111991072129
 21
952.50799219042323
  0
LINE
  8
_0-1_URIMAT
  6
CONTINUOUS
 62
    7
 10
1481.7951836315289
 20
808.48024847575948
 11
1483.0556952947952
 21
817.94037010500915
  0
LINE
  8
_0-1_URIMAT
  6
CONTINUOUS
 62
    7
 10
1483.0556952947952
 20
817.94037010500915
 11
1483.9836850528765
 21
827.4119610294116
  0
LINE
  8
_0-1_URIMAT
  6
CONTINUOUS
 62
    7
 10
1483.9836850528765
 20
827.4119610294116
 11
1484.5170454228336
 21
836.87987870729864
  0
LINE
  8
_0-1_URIMAT
  6
CONTINUOUS
 62
    7
 10
1484.5170454228336
 20
836.87987870729864
 11
1484.598195537829
 21
846.32266911555655
  0
LINE
  8
_0-1_URIMAT
  6
CONTINUOUS
 62
    7
 10
1484.598195537829
 20
846.32266911555655
 11
1484.2413995898939
 21
855.71811767857184
  0
LINE
  8
_0-1_URIMAT
  6
CONTINUOUS
 62
    7
 10
1484.2413995898939
 20
855.71811767857184
 11
1483.4850034298419
 21
865.04971321510356
  0
LINE
  8
_0-1_URIMAT
  6
CONTINUOUS
 62
    7
 10
1483.4850034298419
 20
865.04971321510356
 11
1482.4142743162444
 21
874.31786117649744
  0
LINE
  8
_0-1_URIMAT
  6
CONTINUOUS
 62
    7
 10
1482.4142743162444
 20
874.31786117649744
 11
1481.1263081321149
 21
883.53127790433654
  0
LINE
  8
_0-1_URIMAT
  6
CONTINUOUS
 62
    7
 10
1409.478270944395
 20
673.70574586772613
 11
1416.1597357206494
 21
680.24081186814225
  0
LINE
  8
_0-1_URIMAT
  6
CONTINUOUS
 62
    7
 10
1416.1597357206494
 20
680.24081186814225
 11
1422.4738784776402
 21
687.26806860691203
  0
LINE
  8
_0-1_URIMAT
  6
CONTINUOUS
 62
    7
 10
1422.4738784776402
 20
687.26806860691203
 11
1428.4477893951784
 21
694.69557703020973
  0
LINE
  8
_0-1_URIMAT
  6
CONTINUOUS
 62
    7
 10
1428.4477893951784
 20
694.69557703020973
 11
1434.1256674260985
 21
702.43548612431482
  0
LINE
  8
_0-1_URIMAT
  6
CONTINUOUS
 62
    7
 10
1434.1256674260985
 20
702.43548612431482
 11
1439.5441963358164
 21
710.42420399276807
  0
LINE
  8
_0-1_URIMAT
  6
CONTINUOUS
 62
    7
 10
1439.5441963358164
 20
710.42420399276807
 11
1444.7422067820707
 21
718.60916287041607
  0
LINE
  8
_0-1_URIMAT
  6
CONTINUOUS
 62
    7
 10
1444.7422067820707
 20
718.60916287041607
 11
1449.7539266423702
 21
726.94919114698484
  0
LINE
  8
_0-1_URIMAT
  6
CONTINUOUS
 62
    7
 10
1449.7539266423702
 20
726.94919114698484
 11
1454.5919844197746
 21
735.42311519176746
  0
LINE
  8
_0-1_URIMAT
  6
CONTINUOUS
 62
    7
 10
1454.5919844197746
 20
735.42311519176746
 11
1459.2262470115438
 21
744.0367652002784
  0
LINE
  8
_0-1_URIMAT
  6
CONTINUOUS
 62
    7
 10
1459.2262470115438
 20
744.0367652002784
 11
1463.6091251195068
 21
752.80252664465319
  0
LINE
  8
_0-1_URIMAT
  6
CONTINUOUS
 62
    7
 10
1463.6091251195068
 20
752.80252664465319
 11
1467.7083587954775
 21
761.71867649090768
  0
LINE
  8
_0-1_URIMAT
  6
CONTINUOUS
 62
    7
 10
1467.7083587954775
 20
761.71867649090768
 11
1471.4949352022479
 21
770.77817237288491
  0
LINE
  8
_0-1_URIMAT
  6
CONTINUOUS
 62
    7
 10
1471.4949352022479
 20
770.77817237288491
 11
1474.890062398131
 21
779.98968872286184
  0
LINE
  8
_0-1_URIMAT
  6
CONTINUOUS
 62
    7
 10
1474.890062398131
 20
779.98968872286184
 11
1477.7743045260017
 21
789.36247283091563
  0
LINE
  8
_0-1_URIMAT
  6
CONTINUOUS
 62
    7
 10
1477.7743045260017
 20
789.36247283091563
 11
1480.0744709095315
 21
798.87451181437927
  0
LINE
  8
_0-1_URIMAT
  6
CONTINUOUS
 62
    7
 10
1480.0744709095315
 20
798.87451181437927
 11
1481.7963588083789
 21
808.48029748504427
  0
LINE
  8
_0-1_URIMAT
  6
CONTINUOUS
 62
    7
 10
1481.1309698142629
 20
883.53467211749068
 11
1480.2613641087816
 21
890.56595755257001
  0
LINE
  8
_0-1_URIMAT
  6
CONTINUOUS
 62
    7
 10
1480.2613641087816
 20
890.56595755257001
 11
1479.7801568476015
 21
897.34225241619731
  0
LINE
  8
_0-1_URIMAT
  6
CONTINUOUS
 62
    7
 10
1479.7801568476015
 20
897.34225241619731
 11
1479.6671615963653
 21
903.74385718497956
  0
LINE
  8
_0-1_URIMAT
  6
CONTINUOUS
 62
    7
 10
1479.6671615963653
 20
903.74385718497956
 11
1479.9280495719578
 21
909.65313357186539
  0
LINE
  8
_0-1_URIMAT
  6
CONTINUOUS
 62
    7
 10
1479.9280495719578
 20
909.65313357186539
 11
1480.5826435636747
 21
914.96817072679618
  0
LINE
  8
_0-1_URIMAT
  6
CONTINUOUS
 62
    7
 10
1480.5826435636747
 20
914.96817072679618
 11
1481.0759160726413
 21
917.38792130912065
  0
LINE
  8
_0-1_URIMAT
  6
CONTINUOUS
 62
    7
 10
1481.0759160726413
 20
917.38792130912065
 11
1481.7014249423034
 21
919.65285504249163
  0
LINE
  8
_0-1_URIMAT
  6
CONTINUOUS
 62
    7
 10
1481.7014249423034
 20
919.65285504249163
 11
1482.4924024732674
 21
921.77613506726208
  0
LINE
  8
_0-1_URIMAT
  6
CONTINUOUS
 62
    7
 10
1482.4924024732674
 20
921.77613506726208
 11
1483.5093753377002
 21
923.7761430991112
  0
LINE
  8
_0-1_URIMAT
  6
CONTINUOUS
 62
    7
 10
1483.5093753377002
 20
923.7761430991112
 11
1484.8463874883514
 21
925.64519397353649
  0
LINE
  8
_0-1_URIMAT
  6
CONTINUOUS
 62
    7
 10
1484.8463874883514
 20
925.64519397353649
 11
1486.532877489496
 21
927.24272740688206
  0
LINE
  8
_0-1_URIMAT
  6
CONTINUOUS
 62
    7
 10
1344.1015318008699
 20
628.17280341879325
 11
1352.402597062216
 21
633.06361498857063
  0
LINE
  8
_0-1_URIMAT
  6
CONTINUOUS
 62
    7
 10
1352.402597062216
 20
633.06361498857063
 11
1360.7165691721738
 21
638.15408025027682
  0
LINE
  8
_0-1_URIMAT
  6
CONTINUOUS
 62
    7
 10
1360.7165691721738
 20
638.15408025027682
 11
1377.3720680480962
 21
648.80920757605861
  0
LINE
  8
_0-1_URIMAT
  6
CONTINUOUS
 62
    7
 10
1377.3720680480962
 20
648.80920757605861
 11
1385.6325282929083
 21
654.47454221484633
  0
LINE
  8
_0-1_URIMAT
  6
CONTINUOUS
 62
    7
 10
1385.6325282929083
 20
654.47454221484633
 11
1393.7710810018631
 21
660.47605055021097
  0
LINE
  8
_0-1_URIMAT
  6
CONTINUOUS
 62
    7
 10
1393.7710810018631
 20
660.47605055021097
 11
1401.7250833823318
 21
666.88680056884459
  0
LINE
  8
_0-1_URIMAT
  6
CONTINUOUS
 62
    7
 10
1401.7250833823318
 20
666.88680056884459
 11
1409.4832976941208
 21
673.6998209162914
  0
LINE
  8
_0-1_URIMAT
  6
CONTINUOUS
 62
    7
 10
1267.581315293326
 20
607.62676244862825
 11
1267.7866633931391
 21
607.60447934485955
  0
LINE
  8
_0-1_URIMAT
  6
CONTINUOUS
 62
    7
 10
1267.7866633931391
 20
607.60447934485955
 11
1268.193464169738
 21
607.56243534663906
  0
LINE
  8
_0-1_URIMAT
  6
CONTINUOUS
 62
    7
 10
1268.193464169738
 20
607.56243534663906
 11
1269.5177786613371
 21
607.44588839045036
  0
LINE
  8
_0-1_URIMAT
  6
CONTINUOUS
 62
    7
 10
1269.5177786613371
 20
607.44588839045036
 11
1271.5290029678421
 21
607.33313630345458
  0
LINE
  8
_0-1_URIMAT
  6
CONTINUOUS
 62
    7
 10
1271.5290029678421
 20
607.33313630345458
 11
1274.2257049318398
 21
607.29726190371854
  0
LINE
  8
_0-1_URIMAT
  6
CONTINUOUS
 62
    7
 10
1274.2257049318398
 20
607.29726190371854
 11
1277.6225602680424
 21
607.42433145325617
  0
LINE
  8
_0-1_URIMAT
  6
CONTINUOUS
 62
    7
 10
1277.6225602680424
 20
607.42433145325617
 11
1281.719298883838
 21
607.79662752280194
  0
LINE
  8
_0-1_URIMAT
  6
CONTINUOUS
 62
    7
 10
1281.719298883838
 20
607.79662752280194
 11
1286.5088573309203
 21
608.4701449723808
  0
LINE
  8
_0-1_URIMAT
  6
CONTINUOUS
 62
    7
 10
1286.5088573309203
 20
608.4701449723808
 11
1291.95981085898
 21
609.45286094609173
  0
LINE
  8
_0-1_URIMAT
  6
CONTINUOUS
 62
    7
 10
1291.95981085898
 20
609.45286094609173
 11
1298.0152847942781
 21
610.67933219224244
  0
LINE
  8
_0-1_URIMAT
  6
CONTINUOUS
 62
    7
 10
1298.0152847942781
 20
610.67933219224244
 11
1304.6159625317902
 21
612.04363239618828
  0
LINE
  8
_0-1_URIMAT
  6
CONTINUOUS
 62
    7
 10
1304.6159625317902
 20
612.04363239618828
 11
1307.8846311860634
 21
612.7903614755005
  0
LINE
  8
_0-1_URIMAT
  6
CONTINUOUS
 62
    7
 10
1307.8846311860634
 20
612.7903614755005
 11
1311.0766671793619
 21
613.78985868184111
  0
LINE
  8
_0-1_URIMAT
  6
CONTINUOUS
 62
    7
 10
1311.0766671793619
 20
613.78985868184111
 11
1317.7197287873063
 21
616.31331102002729
  0
LINE
  8
_0-1_URIMAT
  6
CONTINUOUS
 62
    7
 10
1317.7197287873063
 20
616.31331102002729
 11
1331.0776322533795
 21
621.64230803460475
  0
LINE
  8
_0-1_URIMAT
  6
CONTINUOUS
 62
    7
 10
1331.0776322533795
 20
621.64230803460475
 11
1337.6353493803642
 21
624.69655131354443
  0
LINE
  8
_0-1_URIMAT
  6
CONTINUOUS
 62
    7
 10
1337.6353493803642
 20
624.69655131354443
 11
1344.1119974835949
 21
628.17624660856938
  0
LINE
  8
_0-1_URIMAT
  6
CONTINUOUS
 62
    7
 10
1486.651374917038
 20
927.33337308351667
 11
1489.0014778293007
 21
929.08031859652976
  0
LINE
  8
_0-1_URIMAT
  6
CONTINUOUS
 62
    7
 10
1489.0014778293007
 20
929.08031859652976
 11
1491.0695074925338
 21
930.63330351077149
  0
LINE
  8
_0-1_URIMAT
  6
CONTINUOUS
 62
    7
 10
1491.0695074925338
 20
930.63330351077149
 11
1492.876332306941
 21
932.0025550532772
  0
LINE
  8
_0-1_URIMAT
  6
CONTINUOUS
 62
    7
 10
1492.876332306941
 20
932.0025550532772
 11
1494.422885218383
 21
933.18417952115544
  0
LINE
  8
_0-1_URIMAT
  6
CONTINUOUS
 62
    7
 10
1494.422885218383
 20
933.18417952115544
 11
1495.7046651413927
 21
934.17047265012604
  0
LINE
  8
_0-1_URIMAT
  6
CONTINUOUS
 62
    7
 10
1495.7046651413927
 20
934.17047265012604
 11
1496.7175951877591
 21
934.95449038442768
  0
LINE
  8
_0-1_URIMAT
  6
CONTINUOUS
 62
    7
 10
1496.7175951877591
 20
934.95449038442768
 11
1497.4397968552027
 21
935.51653807820036
  0
LINE
  8
_0-1_URIMAT
  6
CONTINUOUS
 62
    7
 10
1497.4397968552027
 20
935.51653807820036
 11
1497.784289421706
 21
935.78687467822192
  0
LINE
  8
_0-1_URIMAT
  6
CONTINUOUS
 62
    7
 10
609.5796738225423
 20
313.12832569618149
 11
606.72222937286767
 21
322.01180700723944
  0
LINE
  8
_0-1_URIMAT
  6
CONTINUOUS
 62
    7
 10
606.72239356083116
 20
322.0118599919383
 11
603.53377285002989
 21
331.90048132400812
  0
LINE
  8
_0-1_URIMAT
  6
CONTINUOUS
 62
    7
 10
603.53377285002989
 20
331.90048132400812
 11
600.31877212376832
 21
341.91002148828744
  0
LINE
  8
_0-1_URIMAT
  6
CONTINUOUS
 62
    7
 10
600.31877212376832
 20
341.91002148828744
 11
598.58702761902623
 21
347.33668436570314
  0
LINE
  8
_0-1_URIMAT
  6
CONTINUOUS
 62
    7
 10
598.58702761902623
 20
347.33668436570314
 11
596.95074331868465
 21
352.49665719167904
  0
LINE
  8
_0-1_URIMAT
  6
CONTINUOUS
 62
    7
 10
596.95074331868465
 20
352.49665719167904
 11
595.40991922274338
 21
357.38993996621502
  0
LINE
  8
_0-1_URIMAT
  6
CONTINUOUS
 62
    7
 10
595.40991922274338
 20
357.38993996621502
 11
593.96455533120251
 21
362.01653268931119
  0
LINE
  8
_0-1_URIMAT
  6
CONTINUOUS
 62
    7
 10
593.96455533120251
 20
362.01653268931119
 11
593.24085479303914
 21
364.3487186481517
  0
LINE
  8
_0-1_URIMAT
  6
CONTINUOUS
 62
    7
 10
593.24085479303914
 20
364.3487186481517
 11
592.43157284330288
 21
366.97018385991663
  0
LINE
  8
_0-1_URIMAT
  6
CONTINUOUS
 62
    7
 10
592.43157284330288
 20
366.97018385991663
 11
590.85450815465424
 21
372.12213320994345
  0
LINE
  8
_0-1_URIMAT
  6
CONTINUOUS
 62
    7
 10
590.85450815465424
 20
372.12213320994345
 11
587.86637562065391
 21
382.06210761598509
  0
LINE
  8
_0-1_URIMAT
  6
CONTINUOUS
 62
    7
 10
587.86637562065391
 20
382.06210761598509
 11
586.42824051347963
 21
386.94261743463226
  0
LINE
  8
_0-1_URIMAT
  6
CONTINUOUS
 62
    7
 10
586.42824051347963
 20
386.94261743463226
 11
584.92988554258499
 21
392.10414949272427
  0
LINE
  8
_0-1_URIMAT
  6
CONTINUOUS
 62
    7
 10
584.92988554258499
 20
392.10414949272427
 11
582.0602309726421
 21
402.23385300556594
  0
LINE
  8
_0-1_URIMAT
  6
CONTINUOUS
 62
    7
 10
582.0602309726421
 20
402.23385300556594
 11
579.30360134945954
 21
412.31558095515919
  0
LINE
  8
_0-1_URIMAT
  6
CONTINUOUS
 62
    7
 10
579.30360134945954
 20
412.31558095515919
 11
576.60983444795374
 21
422.56168807760724
  0
LINE
  8
_0-1_URIMAT
  6
CONTINUOUS
 62
    7
 10
576.60983444795374
 20
422.56168807760724
 11
571.56660309024232
 21
443.04785853637014
  0
LINE
  8
_0-1_URIMAT
  6
CONTINUOUS
 62
    7
 10
571.56660309024232
 20
443.04785853637014
 11
566.96688656830804
 21
463.68040780008203
  0
LINE
  8
_0-1_URIMAT
  6
CONTINUOUS
 62
    7
 10
566.96688656830804
 20
463.68040780008203
 11
562.82923272327229
 21
484.45114148020581
  0
LINE
  8
_0-1_URIMAT
  6
CONTINUOUS
 62
    7
 10
562.82923272327229
 20
484.45114148020581
 11
559.1613829040848
 21
505.32239101828747
  0
LINE
  8
_0-1_URIMAT
  6
CONTINUOUS
 62
    7
 10
559.1613829040848
 20
505.32239101828747
 11
555.95851165062015
 21
526.26651754032889
  0
LINE
  8
_0-1_URIMAT
  6
CONTINUOUS
 62
    7
 10
555.95851165062015
 20
526.26651754032889
 11
553.21982423331007
 21
547.12978517238491
  0
LINE
  8
_0-1_URIMAT
  6
CONTINUOUS
 62
    7
 10
553.21982423331007
 20
547.12978517238491
 11
550.85769394875001
 21
568.45527559625998
  0
LINE
  8
_0-1_URIMAT
  6
CONTINUOUS
 62
    7
 10
550.85769394875001
 20
568.45527559625998
 11
548.93896571591267
 21
589.41160559860838
  0
LINE
  8
_0-1_URIMAT
  6
CONTINUOUS
 62
    7
 10
548.93896571591267
 20
589.41160559860838
 11
547.36519290781166
 21
610.7835842121741
  0
LINE
  8
_0-1_URIMAT
  6
CONTINUOUS
 62
    7
 10
547.36519290781166
 20
610.7835842121741
 11
546.71394042261169
 21
621.49821111993094
  0
LINE
  8
_0-1_URIMAT
  6
CONTINUOUS
 62
    7
 10
546.71394042261169
 20
621.49821111993094
 11
546.15669150616952
 21
632.09972997432316
  0
LINE
  8
_0-1_URIMAT
  6
CONTINUOUS
 62
    7
 10
546.15669150616952
 20
632.09972997432316
 11
545.29178064241398
 21
653.45854438410515
  0
LINE
  8
_0-1_URIMAT
  6
CONTINUOUS
 62
    7
 10
545.29178064241398
 20
653.45854438410515
 11
544.76191912677199
 21
674.91423897419656
  0
LINE
  8
_0-1_URIMAT
  6
CONTINUOUS
 62
    7
 10
544.76191912677199
 20
674.91423897419656
 11
544.56939279273615
 21
696.26174203943821
  0
LINE
  8
_0-1_URIMAT
  6
CONTINUOUS
 62
    7
 10
544.56939279273615
 20
696.26174203943821
 11
544.71399921357658
 21
717.61887856450687
  0
LINE
  8
_0-1_URIMAT
  6
CONTINUOUS
 62
    7
 10
544.71399921357658
 20
717.61887856450687
 11
545.20337064306875
 21
739.02205627021203
  0
LINE
  8
_0-1_URIMAT
  6
CONTINUOUS
 62
    7
 10
545.20337064306875
 20
739.02205627021203
 11
546.037766310601
 21
760.24033381938147
  0
LINE
  8
_0-1_URIMAT
  6
CONTINUOUS
 62
    7
 10
546.037766310601
 20
760.24033381938147
 11
547.21718621617321
 21
781.27371121201542
  0
LINE
  8
_0-1_URIMAT
  6
CONTINUOUS
 62
    7
 10
547.21718621617321
 20
781.27371121201542
 11
548.74163035978563
 21
802.122188448114
  0
LINE
  8
_0-1_URIMAT
  6
CONTINUOUS
 62
    7
 10
548.74163035978563
 20
802.122188448114
 11
550.64024981081706
 21
823.08836068700895
  0
LINE
  8
_0-1_URIMAT
  6
CONTINUOUS
 62
    7
 10
550.64024981081706
 20
823.08836068700895
 11
552.90803395432169
 21
844.03966108650672
  0
LINE
  8
_0-1_URIMAT
  6
CONTINUOUS
 62
    7
 10
552.90803395432169
 20
844.03966108650672
 11
555.53340635442395
 21
864.87758605668182
  0
LINE
  8
_0-1_URIMAT
  6
CONTINUOUS
 62
    7
 10
555.53340635442395
 20
864.87758605668182
 11
558.53785261455436
 21
885.80639827145364
  0
LINE
  8
_0-1_URIMAT
  6
CONTINUOUS
 62
    7
 10
558.53785261455436
 20
885.80639827145364
 11
560.18536834750534
 21
896.33129888423547
  0
LINE
  8
_0-1_URIMAT
  6
CONTINUOUS
 62
    7
 10
560.18536834750534
 20
896.33129888423547
 11
561.87575155798776
 21
906.57787774172686
  0
LINE
  8
_0-1_URIMAT
  6
CONTINUOUS
 62
    7
 10
561.87575155798776
 20
906.57787774172686
 11
565.55749248078859
 21
927.37354251498356
  0
LINE
  8
_0-1_URIMAT
  6
CONTINUOUS
 62
    7
 10
565.55749248078859
 20
927.37354251498356
 11
567.55819434729914
 21
937.98068060186085
  0
LINE
  8
_0-1_URIMAT
  6
CONTINUOUS
 62
    7
 10
567.55819434729914
 20
937.98068060186085
 11
568.59850313183187
 21
943.33657607036195
  0
LINE
  8
_0-1_URIMAT
  6
CONTINUOUS
 62
    7
 10
568.59850313183187
 20
943.33657607036195
 11
569.6122032737577
 21
948.46102302070539
  0
LINE
  8
_0-1_URIMAT
  6
CONTINUOUS
 62
    7
 10
569.6122032737577
 20
948.46102302070539
 11
573.90754908895405
 21
969.31157891125394
  0
LINE
  8
_0-1_URIMAT
  6
CONTINUOUS
 62
    7
 10
573.90754908895405
 20
969.31157891125394
 11
576.10347539526765
 21
979.53167583092829
  0
LINE
  8
_0-1_URIMAT
  6
CONTINUOUS
 62
    7
 10
576.10347539526765
 20
979.53167583092829
 11
578.45299145908404
 21
990.21440600843402
  0
LINE
  8
_0-1_URIMAT
  6
CONTINUOUS
 62
    7
 10
589.87085892952052
 20
885.95242257340817
 11
585.65660968754525
 21
911.1520580950173
  0
LINE
  8
_0-1_URIMAT
  6
CONTINUOUS
 62
    7
 10
585.65660968754525
 20
911.1520580950173
 11
582.19854539599862
 21
936.33690797853978
  0
LINE
  8
_0-1_URIMAT
  6
CONTINUOUS
 62
    7
 10
582.19854539599862
 20
936.33690797853978
 11
580.77214930357752
 21
948.95868971482025
  0
LINE
  8
_0-1_URIMAT
  6
CONTINUOUS
 62
    7
 10
580.77214930357752
 20
948.95868971482025
 11
579.58931621318231
 21
961.62051738269587
  0
LINE
  8
_0-1_URIMAT
  6
CONTINUOUS
 62
    7
 10
579.58931621318231
 20
961.62051738269587
 11
578.74263100645703
 21
974.35487224751705
  0
LINE
  8
_0-1_URIMAT
  6
CONTINUOUS
 62
    7
 10
578.74263100645703
 20
974.35487224751705
 11
578.4205002664363
 21
987.20223585514236
  0
LINE
  8
_0-1_URIMAT
  6
CONTINUOUS
 62
    7
 10
574.29800458219756
 20
808.49062150724159
 11
577.07401453286092
 21
828.12441531641525
  0
LINE
  8
_0-1_URIMAT
  6
CONTINUOUS
 62
    7
 10
577.07401453286092
 20
828.12441531641525
 11
578.73972789489744
 21
837.87503531747461
  0
LINE
  8
_0-1_URIMAT
  6
CONTINUOUS
 62
    7
 10
578.73972789489744
 20
837.87503531747461
 11
580.60784751263759
 21
847.57661836384545
  0
LINE
  8
_0-1_URIMAT
  6
CONTINUOUS
 62
    7
 10
580.60784751263759
 20
847.57661836384545
 11
584.9235399383931
 21
866.83981555593754
  0
LINE
  8
_0-1_URIMAT
  6
CONTINUOUS
 62
    7
 10
584.9235399383931
 20
866.83981555593754
 11
589.87085909846132
 21
885.95242165099375
  0
LINE
  8
_0-1_URIMAT
  6
CONTINUOUS
 62
    7
 10
589.58681776798403
 20
668.29670744317729
 11
586.63236919833514
 21
675.03660964666619
  0
LINE
  8
_0-1_URIMAT
  6
CONTINUOUS
 62
    7
 10
586.63236919833514
 20
675.03660964666619
 11
583.95604582623309
 21
682.34723401247117
  0
LINE
  8
_0-1_URIMAT
  6
CONTINUOUS
 62
    7
 10
583.95604582623309
 20
682.34723401247117
 11
581.56250287554473
 21
690.13192827594457
  0
LINE
  8
_0-1_URIMAT
  6
CONTINUOUS
 62
    7
 10
581.56250287554473
 20
690.13192827594457
 11
579.46733040554022
 21
698.19090699834282
  0
LINE
  8
_0-1_URIMAT
  6
CONTINUOUS
 62
    7
 10
579.46733040554022
 20
698.19090699834282
 11
577.64134557573061
 21
706.46714717718293
  0
LINE
  8
_0-1_URIMAT
  6
CONTINUOUS
 62
    7
 10
577.64134557573061
 20
706.46714717718293
 11
576.06409940240541
 21
714.92818714943473
  0
LINE
  8
_0-1_URIMAT
  6
CONTINUOUS
 62
    7
 10
576.06409940240541
 20
714.92818714943473
 11
574.72026109288572
 21
723.54573222632188
  0
LINE
  8
_0-1_URIMAT
  6
CONTINUOUS
 62
    7
 10
574.72026109288572
 20
723.54573222632188
 11
573.60458127153219
 21
732.30586017576456
  0
LINE
  8
_0-1_URIMAT
  6
CONTINUOUS
 62
    7
 10
573.60458127153219
 20
732.30586017576456
 11
572.73048862873918
 21
741.22566670248068
  0
LINE
  8
_0-1_URIMAT
  6
CONTINUOUS
 62
    7
 10
572.73048862873918
 20
741.22566670248068
 11
572.11768017872077
 21
750.33290317249839
  0
LINE
  8
_0-1_URIMAT
  6
CONTINUOUS
 62
    7
 10
572.11768017872077
 20
750.33290317249839
 11
571.77422537026768
 21
759.64450144170211
  0
LINE
  8
_0-1_URIMAT
  6
CONTINUOUS
 62
    7
 10
571.77422537026768
 20
759.64450144170211
 11
571.69579968257653
 21
769.14013956531573
  0
LINE
  8
_0-1_URIMAT
  6
CONTINUOUS
 62
    7
 10
571.69579968257653
 20
769.14013956531573
 11
571.89439129019365
 21
778.75306165659537
  0
LINE
  8
_0-1_URIMAT
  6
CONTINUOUS
 62
    7
 10
571.89439129019365
 20
778.75306165659537
 11
572.39159928030289
 21
788.50765965672349
  0
LINE
  8
_0-1_URIMAT
  6
CONTINUOUS
 62
    7
 10
572.39159928030289
 20
788.50765965672349
 11
573.19641377922698
 21
798.42098727900781
  0
LINE
  8
_0-1_URIMAT
  6
CONTINUOUS
 62
    7
 10
573.19641377922698
 20
798.42098727900781
 11
574.29800458219756
 21
808.49062150724159
  0
LINE
  8
_0-1_URIMAT
  6
CONTINUOUS
 62
    7
 10
589.58681776798403
 20
668.29670744317729
 11
593.2070023852101
 21
661.2343156513009
  0
LINE
  8
_0-1_URIMAT
  6
CONTINUOUS
 62
    7
 10
593.2070023852101
 20
661.2343156513009
 11
597.09142763524937
 21
654.62352886362702
  0
LINE
  8
_0-1_URIMAT
  6
CONTINUOUS
 62
    7
 10
597.09142763524937
 20
654.62352886362702
 11
601.23853372047938
 21
648.45701159757777
  0
LINE
  8
_0-1_URIMAT
  6
CONTINUOUS
 62
    7
 10
601.23853372047938
 20
648.45701159757777
 11
605.63082766315869
 21
642.6494700096465
  0
LINE
  8
_0-1_URIMAT
  6
CONTINUOUS
 62
    7
 10
605.63082766315869
 20
642.6494700096465
 11
610.24867335399505
 21
637.10656609640057
  0
LINE
  8
_0-1_URIMAT
  6
CONTINUOUS
 62
    7
 10
610.24867335399505
 20
637.10656609640057
 11
615.07407990449144
 21
631.74494175960592
  0
LINE
  8
_0-1_URIMAT
  6
CONTINUOUS
 62
    7
 10
615.07407990449144
 20
631.74494175960592
 11
620.09822174362716
 21
626.5267783707851
  0
LINE
  8
_0-1_URIMAT
  6
CONTINUOUS
 62
    7
 10
620.09822174362716
 20
626.5267783707851
 11
625.33097410242146
 21
621.50249563556121
  0
LINE
  8
_0-1_URIMAT
  6
CONTINUOUS
 62
    7
 10
735.11496132543561
 20
599.76776967672162
 11
716.63699955740366
 21
599.59928954154963
  0
LINE
  8
_0-1_URIMAT
  6
CONTINUOUS
 62
    7
 10
716.63699955740366
 20
599.59928954154963
 11
707.55118120365546
 21
599.46491144823198
  0
LINE
  8
_0-1_URIMAT
  6
CONTINUOUS
 62
    7
 10
707.55118120365546
 20
599.46491144823198
 11
698.77613394308423
 21
599.39650194859746
  0
LINE
  8
_0-1_URIMAT
  6
CONTINUOUS
 62
    7
 10
698.77613394308423
 20
599.39650194859746
 11
690.30985888344025
 21
599.48793773279828
  0
LINE
  8
_0-1_URIMAT
  6
CONTINUOUS
 62
    7
 10
690.30985888344025
 20
599.48793773279828
 11
682.15915938138448
 21
599.82977812001786
  0
LINE
  8
_0-1_URIMAT
  6
CONTINUOUS
 62
    7
 10
682.15915938138448
 20
599.82977812001786
 11
674.47451565865719
 21
600.48313496468495
  0
LINE
  8
_0-1_URIMAT
  6
CONTINUOUS
 62
    7
 10
674.47451565865719
 20
600.48313496468495
 11
667.31919339824207
 21
601.4602264653281
  0
LINE
  8
_0-1_URIMAT
  6
CONTINUOUS
 62
    7
 10
667.31919339824207
 20
601.4602264653281
 11
660.7561653886787
 21
602.71127229266426
  0
LINE
  8
_0-1_URIMAT
  6
CONTINUOUS
 62
    7
 10
660.7561653886787
 20
602.71127229266426
 11
654.8783668740607
 21
604.12392661482454
  0
LINE
  8
_0-1_URIMAT
  6
CONTINUOUS
 62
    7
 10
654.8783668740607
 20
604.12392661482454
 11
652.18890572691975
 21
604.86440882480656
  0
LINE
  8
_0-1_URIMAT
  6
CONTINUOUS
 62
    7
 10
652.18890572691975
 20
604.86440882480656
 11
649.57777213182112
 21
605.83394439261098
  0
LINE
  8
_0-1_URIMAT
  6
CONTINUOUS
 62
    7
 10
649.57777213182112
 20
605.83394439261098
 11
644.47520532591215
 21
608.48975171077472
  0
LINE
  8
_0-1_URIMAT
  6
CONTINUOUS
 62
    7
 10
644.47520532591215
 20
608.48975171077472
 11
639.48674323106638
 21
611.29892179166017
  0
LINE
  8
_0-1_URIMAT
  6
CONTINUOUS
 62
    7
 10
639.48674323106638
 20
611.29892179166017
 11
634.60954517948471
 21
614.27690239221033
  0
LINE
  8
_0-1_URIMAT
  6
CONTINUOUS
 62
    7
 10
634.60954517948471
 20
614.27690239221033
 11
629.88386981632436
 21
617.64228085425122
  0
LINE
  8
_0-1_URIMAT
  6
CONTINUOUS
 62
    7
 10
629.88386981632436
 20
617.64228085425122
 11
625.33093815401127
 21
621.50229365579502
  0
LINE
  8
_0-1_URIMAT
  6
CONTINUOUS
 62
    7
 10
844.89898449685927
 20
621.50229365579502
 11
840.34605283454618
 21
617.64228085425111
  0
LINE
  8
_0-1_URIMAT
  6
CONTINUOUS
 62
    7
 10
840.34605283454618
 20
617.64228085425111
 11
835.62037747138583
 21
614.27690239221033
  0
LINE
  8
_0-1_URIMAT
  6
CONTINUOUS
 62
    7
 10
835.62037747138583
 20
614.27690239221033
 11
830.74317941980439
 21
611.29892179166017
  0
LINE
  8
_0-1_URIMAT
  6
CONTINUOUS
 62
    7
 10
830.74317941980439
 20
611.29892179166017
 11
825.75471732495873
 21
608.48975171077472
  0
LINE
  8
_0-1_URIMAT
  6
CONTINUOUS
 62
    7
 10
825.75471732495873
 20
608.48975171077472
 11
820.65215051904965
 21
605.8339443926111
  0
LINE
  8
_0-1_URIMAT
  6
CONTINUOUS
 62
    7
 10
820.65215051904965
 20
605.8339443926111
 11
818.04101692395101
 21
604.86440882480667
  0
LINE
  8
_0-1_URIMAT
  6
CONTINUOUS
 62
    7
 10
818.04101692395101
 20
604.86440882480667
 11
815.35155577680973
 21
604.12392661482454
  0
LINE
  8
_0-1_URIMAT
  6
CONTINUOUS
 62
    7
 10
815.35155577680973
 20
604.12392661482454
 11
809.47375726219206
 21
602.71127229266426
  0
LINE
  8
_0-1_URIMAT
  6
CONTINUOUS
 62
    7
 10
809.47375726219206
 20
602.71127229266426
 11
802.91072925262869
 21
601.4602264653281
  0
LINE
  8
_0-1_URIMAT
  6
CONTINUOUS
 62
    7
 10
802.91072925262869
 20
601.4602264653281
 11
795.75540699221346
 21
600.48313496468495
  0
LINE
  8
_0-1_URIMAT
  6
CONTINUOUS
 62
    7
 10
795.75540699221346
 20
600.48313496468495
 11
788.07076326948617
 21
599.82977812001786
  0
LINE
  8
_0-1_URIMAT
  6
CONTINUOUS
 62
    7
 10
788.07076326948617
 20
599.82977812001786
 11
779.92006376743063
 21
599.4879377327984
  0
LINE
  8
_0-1_URIMAT
  6
CONTINUOUS
 62
    7
 10
779.92006376743063
 20
599.4879377327984
 11
771.4537887077862
 21
599.39650194859734
  0
LINE
  8
_0-1_URIMAT
  6
CONTINUOUS
 62
    7
 10
771.4537887077862
 20
599.39650194859734
 11
762.6787414472152
 21
599.46491144823198
  0
LINE
  8
_0-1_URIMAT
  6
CONTINUOUS
 62
    7
 10
762.6787414472152
 20
599.46491144823198
 11
753.59292309346676
 21
599.59928954154975
  0
LINE
  8
_0-1_URIMAT
  6
CONTINUOUS
 62
    7
 10
753.59292309346676
 20
599.59928954154975
 11
735.11496132543561
 21
599.76776967672162
  0
LINE
  8
_0-1_URIMAT
  6
CONTINUOUS
 62
    7
 10
880.64310488288674
 20
668.29670744317729
 11
877.02292026566044
 21
661.23431565130067
  0
LINE
  8
_0-1_URIMAT
  6
CONTINUOUS
 62
    7
 10
877.02292026566044
 20
661.23431565130067
 11
873.13849501562094
 21
654.62352886362714
  0
LINE
  8
_0-1_URIMAT
  6
CONTINUOUS
 62
    7
 10
873.13849501562094
 20
654.62352886362714
 11
868.99138893039116
 21
648.45701159757777
  0
LINE
  8
_0-1_URIMAT
  6
CONTINUOUS
 62
    7
 10
868.99138893039116
 20
648.45701159757777
 11
864.59909498771219
 21
642.64947000964639
  0
LINE
  8
_0-1_URIMAT
  6
CONTINUOUS
 62
    7
 10
864.59909498771219
 20
642.64947000964639
 11
859.9812492968756
 21
637.10656609640045
  0
LINE
  8
_0-1_URIMAT
  6
CONTINUOUS
 62
    7
 10
859.9812492968756
 20
637.10656609640045
 11
855.15584274637922
 21
631.7449417596058
  0
LINE
  8
_0-1_URIMAT
  6
CONTINUOUS
 62
    7
 10
855.15584274637922
 20
631.7449417596058
 11
850.13170090724338
 21
626.5267783707851
  0
LINE
  8
_0-1_URIMAT
  6
CONTINUOUS
 62
    7
 10
850.13170090724338
 20
626.5267783707851
 11
844.89894854844965
 21
621.50249563556121
  0
LINE
  8
_0-1_URIMAT
  6
CONTINUOUS
 62
    7
 10
895.93191806867366
 20
808.49062150724159
 11
897.03350887164356
 21
798.42098727900759
  0
LINE
  8
_0-1_URIMAT
  6
CONTINUOUS
 62
    7
 10
897.03350887164356
 20
798.42098727900759
 11
897.8383233705681
 21
788.50765965672303
  0
LINE
  8
_0-1_URIMAT
  6
CONTINUOUS
 62
    7
 10
897.8383233705681
 20
788.50765965672303
 11
898.33553136067735
 21
778.75306165659458
  0
LINE
  8
_0-1_URIMAT
  6
CONTINUOUS
 62
    7
 10
898.33553136067735
 20
778.75306165659458
 11
898.53412296829424
 21
769.14013956531459
  0
LINE
  8
_0-1_URIMAT
  6
CONTINUOUS
 62
    7
 10
898.53412296829424
 20
769.14013956531459
 11
898.45569728060308
 21
759.64450144170075
  0
LINE
  8
_0-1_URIMAT
  6
CONTINUOUS
 62
    7
 10
898.45569728060308
 20
759.64450144170075
 11
898.11224247215
 21
750.33290317249679
  0
LINE
  8
_0-1_URIMAT
  6
CONTINUOUS
 62
    7
 10
898.11224247215
 20
750.33290317249679
 11
897.49943402213114
 21
741.22566670247886
  0
LINE
  8
_0-1_URIMAT
  6
CONTINUOUS
 62
    7
 10
897.49943402213114
 20
741.22566670247886
 11
896.62534137933857
 21
732.30586017576251
  0
LINE
  8
_0-1_URIMAT
  6
CONTINUOUS
 62
    7
 10
896.62534137933857
 20
732.30586017576251
 11
895.50966155798482
 21
723.54573222632029
  0
LINE
  8
_0-1_URIMAT
  6
CONTINUOUS
 62
    7
 10
895.50966155798482
 20
723.54573222632029
 11
894.1658232484649
 21
714.92818714943234
  0
LINE
  8
_0-1_URIMAT
  6
CONTINUOUS
 62
    7
 10
894.1658232484649
 20
714.92818714943234
 11
892.58857707513948
 21
706.46714717718032
  0
LINE
  8
_0-1_URIMAT
  6
CONTINUOUS
 62
    7
 10
892.58857707513948
 20
706.46714717718032
 11
890.76259224532986
 21
698.19090699833998
  0
LINE
  8
_0-1_URIMAT
  6
CONTINUOUS
 62
    7
 10
890.76259224532986
 20
698.19090699833998
 11
888.66741977532501
 21
690.1319282759415
  0
LINE
  8
_0-1_URIMAT
  6
CONTINUOUS
 62
    7
 10
888.66741977532501
 20
690.1319282759415
 11
886.27387682463654
 21
682.34723401246856
  0
LINE
  8
_0-1_URIMAT
  6
CONTINUOUS
 62
    7
 10
886.27387682463654
 20
682.34723401246856
 11
883.59755345253529
 21
675.03660964666505
  0
LINE
  8
_0-1_URIMAT
  6
CONTINUOUS
 62
    7
 10
883.59755345253529
 20
675.03660964666505
 11
880.64310488288674
 21
668.29670744317729
  0
LINE
  8
_0-1_URIMAT
  6
CONTINUOUS
 62
    7
 10
880.35906355240911
 20
885.95242165099375
 11
885.30638271247801
 21
866.83981555593743
  0
LINE
  8
_0-1_URIMAT
  6
CONTINUOUS
 62
    7
 10
885.30638271247801
 20
866.83981555593743
 11
889.62207513823375
 21
847.57661836384545
  0
LINE
  8
_0-1_URIMAT
  6
CONTINUOUS
 62
    7
 10
889.62207513823375
 20
847.57661836384545
 11
891.49019475597356
 21
837.87503531747461
  0
LINE
  8
_0-1_URIMAT
  6
CONTINUOUS
 62
    7
 10
891.49019475597356
 20
837.87503531747461
 11
893.15590811800984
 21
828.12441531641525
  0
LINE
  8
_0-1_URIMAT
  6
CONTINUOUS
 62
    7
 10
893.15590811800984
 20
828.12441531641525
 11
895.93191806867366
 21
808.49062150724159
  0
LINE
  8
_0-1_URIMAT
  6
CONTINUOUS
 62
    7
 10
891.80942238444015
 20
987.20223585296673
 11
891.48729164432143
 21
974.35487224563257
  0
LINE
  8
_0-1_URIMAT
  6
CONTINUOUS
 62
    7
 10
891.48729164432143
 20
974.35487224563257
 11
890.64060643755794
 21
961.62051738109187
  0
LINE
  8
_0-1_URIMAT
  6
CONTINUOUS
 62
    7
 10
890.64060643755794
 20
961.62051738109187
 11
889.45777334715501
 21
948.95868971348966
  0
LINE
  8
_0-1_URIMAT
  6
CONTINUOUS
 62
    7
 10
889.45777334715501
 20
948.95868971348966
 11
888.031377254743
 21
936.33690797747783
  0
LINE
  8
_0-1_URIMAT
  6
CONTINUOUS
 62
    7
 10
888.031377254743
 20
936.33690797747783
 11
884.57331296324468
 21
911.1520580944873
  0
LINE
  8
_0-1_URIMAT
  6
CONTINUOUS
 62
    7
 10
884.57331296324468
 20
911.1520580944873
 11
880.35906372135025
 21
885.95242257340817
  0
LINE
  8
_0-1_URIMAT
  6
CONTINUOUS
 62
    7
 10
891.77693119178684
 20
990.21440600843402
 11
894.12644725560346
 21
979.5316758309284
  0
LINE
  8
_0-1_URIMAT
  6
CONTINUOUS
 62
    7
 10
894.12644725560346
 20
979.5316758309284
 11
896.32237356191717
 21
969.31157891125394
  0
LINE
  8
_0-1_URIMAT
  6
CONTINUOUS
 62
    7
 10
896.32237356191717
 20
969.31157891125394
 11
900.61771937711318
 21
948.46102302070528
  0
LINE
  8
_0-1_URIMAT
  6
CONTINUOUS
 62
    7
 10
900.61771937711318
 20
948.46102302070528
 11
901.6314195190389
 21
943.33657607036184
  0
LINE
  8
_0-1_URIMAT
  6
CONTINUOUS
 62
    7
 10
901.6314195190389
 20
943.33657607036184
 11
902.67172830357196
 21
937.98068060186096
  0
LINE
  8
_0-1_URIMAT
  6
CONTINUOUS
 62
    7
 10
902.67172830357196
 20
937.98068060186096
 11
904.67243017008217
 21
927.37354251498356
  0
LINE
  8
_0-1_URIMAT
  6
CONTINUOUS
 62
    7
 10
904.67243017008217
 20
927.37354251498356
 11
908.35417109288312
 21
906.57787774172697
  0
LINE
  8
_0-1_URIMAT
  6
CONTINUOUS
 62
    7
 10
908.35417109288312
 20
906.57787774172697
 11
910.04455430336577
 21
896.33129888423536
  0
LINE
  8
_0-1_URIMAT
  6
CONTINUOUS
 62
    7
 10
910.04455430336577
 20
896.33129888423536
 11
911.69207003631674
 21
885.80639827145375
  0
LINE
  8
_0-1_URIMAT
  6
CONTINUOUS
 62
    7
 10
911.69207003631674
 20
885.80639827145375
 11
914.69651629644693
 21
864.87758605668193
  0
LINE
  8
_0-1_URIMAT
  6
CONTINUOUS
 62
    7
 10
914.69651629644693
 20
864.87758605668193
 11
917.32188869654919
 21
844.03966108650672
  0
LINE
  8
_0-1_URIMAT
  6
CONTINUOUS
 62
    7
 10
917.32188869654919
 20
844.03966108650672
 11
919.58967284005359
 21
823.08836068700884
  0
LINE
  8
_0-1_URIMAT
  6
CONTINUOUS
 62
    7
 10
919.58967284005359
 20
823.08836068700884
 11
921.48829229108525
 21
802.12218844811388
  0
LINE
  8
_0-1_URIMAT
  6
CONTINUOUS
 62
    7
 10
921.48829229108525
 20
802.12218844811388
 11
923.01273643469755
 21
781.27371121201542
  0
LINE
  8
_0-1_URIMAT
  6
CONTINUOUS
 62
    7
 10
923.01273643469755
 20
781.27371121201542
 11
924.19215634026954
 21
760.24033381938147
  0
LINE
  8
_0-1_URIMAT
  6
CONTINUOUS
 62
    7
 10
924.19215634026954
 20
760.24033381938147
 11
925.02655200780168
 21
739.02205627021203
  0
LINE
  8
_0-1_URIMAT
  6
CONTINUOUS
 62
    7
 10
925.02655200780168
 20
739.02205627021203
 11
925.51592343729396
 21
717.61887856450698
  0
LINE
  8
_0-1_URIMAT
  6
CONTINUOUS
 62
    7
 10
925.51592343729396
 20
717.61887856450698
 11
925.66052985813462
 21
696.26174203943833
  0
LINE
  8
_0-1_URIMAT
  6
CONTINUOUS
 62
    7
 10
925.66052985813462
 20
696.26174203943833
 11
925.46800352409877
 21
674.91423897419667
  0
LINE
  8
_0-1_URIMAT
  6
CONTINUOUS
 62
    7
 10
925.46800352409877
 20
674.91423897419667
 11
924.93814200845679
 21
653.45854438410503
  0
LINE
  8
_0-1_URIMAT
  6
CONTINUOUS
 62
    7
 10
924.93814200845679
 20
653.45854438410503
 11
924.07323114470113
 21
632.09972997432305
  0
LINE
  8
_0-1_URIMAT
  6
CONTINUOUS
 62
    7
 10
924.07323114470113
 20
632.09972997432305
 11
923.51598222825896
 21
621.49821111993094
  0
LINE
  8
_0-1_URIMAT
  6
CONTINUOUS
 62
    7
 10
923.51598222825896
 20
621.49821111993094
 11
922.86472974305888
 21
610.7835842121741
  0
LINE
  8
_0-1_URIMAT
  6
CONTINUOUS
 62
    7
 10
922.86472974305888
 20
610.7835842121741
 11
921.2909569349581
 21
589.4116055986085
  0
LINE
  8
_0-1_URIMAT
  6
CONTINUOUS
 62
    7
 10
921.2909569349581
 20
589.4116055986085
 11
919.37222870212087
 21
568.45527559625998
  0
LINE
  8
_0-1_URIMAT
  6
CONTINUOUS
 62
    7
 10
919.37222870212087
 20
568.45527559625998
 11
917.01009841756047
 21
547.12978517238502
  0
LINE
  8
_0-1_URIMAT
  6
CONTINUOUS
 62
    7
 10
917.01009841756047
 20
547.12978517238502
 11
914.2714110002505
 21
526.26651754032911
  0
LINE
  8
_0-1_URIMAT
  6
CONTINUOUS
 62
    7
 10
914.2714110002505
 20
526.26651754032911
 11
911.06853974678597
 21
505.32239101828758
  0
LINE
  8
_0-1_URIMAT
  6
CONTINUOUS
 62
    7
 10
911.06853974678597
 20
505.32239101828758
 11
907.40068992759836
 21
484.45114148020587
  0
LINE
  8
_0-1_URIMAT
  6
CONTINUOUS
 62
    7
 10
907.40068992759836
 20
484.45114148020587
 11
903.26303608256262
 21
463.68040780008197
  0
LINE
  8
_0-1_URIMAT
  6
CONTINUOUS
 62
    7
 10
903.26303608256262
 20
463.68040780008197
 11
898.66331956062822
 21
443.04785853637008
  0
LINE
  8
_0-1_URIMAT
  6
CONTINUOUS
 62
    7
 10
898.66331956062822
 20
443.04785853637008
 11
893.62008820291725
 21
422.56168807760707
  0
LINE
  8
_0-1_URIMAT
  6
CONTINUOUS
 62
    7
 10
893.62008820291725
 20
422.56168807760707
 11
890.92632130141134
 21
412.31558095515907
  0
LINE
  8
_0-1_URIMAT
  6
CONTINUOUS
 62
    7
 10
890.92632130141134
 20
412.31558095515907
 11
888.16969167822878
 21
402.23385300556577
  0
LINE
  8
_0-1_URIMAT
  6
CONTINUOUS
 62
    7
 10
888.16969167822878
 20
402.23385300556577
 11
885.30003710828589
 21
392.10414949272421
  0
LINE
  8
_0-1_URIMAT
  6
CONTINUOUS
 62
    7
 10
885.30003710828589
 20
392.10414949272421
 11
883.80168213739136
 21
386.94261743463226
  0
LINE
  8
_0-1_URIMAT
  6
CONTINUOUS
 62
    7
 10
883.80168213739136
 20
386.94261743463226
 11
882.36354703021709
 21
382.06210761598504
  0
LINE
  8
_0-1_URIMAT
  6
CONTINUOUS
 62
    7
 10
882.36354703021709
 20
382.06210761598504
 11
879.37541449621653
 21
372.12213320994328
  0
LINE
  8
_0-1_URIMAT
  6
CONTINUOUS
 62
    7
 10
879.37541449621653
 20
372.12213320994328
 11
877.79834980756777
 21
366.97018385991646
  0
LINE
  8
_0-1_URIMAT
  6
CONTINUOUS
 62
    7
 10
877.79834980756777
 20
366.97018385991646
 11
876.98906785783151
 21
364.34871864815158
  0
LINE
  8
_0-1_URIMAT
  6
CONTINUOUS
 62
    7
 10
876.98906785783151
 20
364.34871864815158
 11
876.26536731966837
 21
362.01653268931113
  0
LINE
  8
_0-1_URIMAT
  6
CONTINUOUS
 62
    7
 10
876.26536731966837
 20
362.01653268931113
 11
874.82000342812716
 21
357.38993996621491
  0
LINE
  8
_0-1_URIMAT
  6
CONTINUOUS
 62
    7
 10
874.82000342812716
 20
357.38993996621491
 11
873.279179332186
 21
352.49665719167899
  0
LINE
  8
_0-1_URIMAT
  6
CONTINUOUS
 62
    7
 10
873.279179332186
 20
352.49665719167899
 11
871.64289503184454
 21
347.33668436570309
  0
LINE
  8
_0-1_URIMAT
  6
CONTINUOUS
 62
    7
 10
871.64289503184454
 20
347.33668436570309
 11
869.91115052710256
 21
341.91002148828738
  0
LINE
  8
_0-1_URIMAT
  6
CONTINUOUS
 62
    7
 10
869.91115052710256
 20
341.91002148828738
 11
866.69614980084065
 21
331.90048132400806
  0
LINE
  8
_0-1_URIMAT
  6
CONTINUOUS
 62
    7
 10
866.69614980084065
 20
331.90048132400806
 11
863.50752909003949
 21
322.0118599919383
  0
LINE
  8
_0-1_URIMAT
  6
CONTINUOUS
 62
    7
 10
863.50769327800264
 20
322.01180700723944
 11
858.29371033226971
 21
305.75220011930559
  0
LINE
  8
_0-1_URIMAT
  6
CONTINUOUS
 62
    7
 10
636.14500692844524
 20
627.20880364053755
 11
636.16677573452784
 21
627.18886038549692
  0
LINE
  8
_0-1_URIMAT
  6
CONTINUOUS
 62
    7
 10
834.06299742452938
 20
627.18872242904683
 11
834.08446383516513
 21
627.20839257328702
  0
LINE
  8
_0-1_URIMAT
  6
CONTINUOUS
 62
    7
 10
606.25176394982509
 20
664.02039222016946
 11
606.57658646865172
 21
663.43959173983262
  0
LINE
  8
_0-1_URIMAT
  6
CONTINUOUS
 62
    7
 10
603.57183476073214
 20
669.08805868927652
 11
606.25176394984373
 21
664.0203922201365
  0
LINE
  8
_0-1_URIMAT
  6
CONTINUOUS
 62
    7
 10
863.97955260060223
 20
664.022899648897
 11
866.658087792037
 21
669.08805849454824
  0
LINE
  8
_0-1_URIMAT
  6
CONTINUOUS
 62
    7
 10
863.6505311714767
 20
663.43460648806353
 11
863.97955260143692
 21
664.02289965039835
  0
LINE
  8
_0-1_URIMAT
  6
CONTINUOUS
 62
    7
 10
867.98914775093976
 20
671.79043240580608
 11
867.93843049839802
 21
671.68596562416371
  0
LINE
  8
_0-1_URIMAT
  6
CONTINUOUS
 62
    7
 10
602.29149215247275
 20
671.68596562416371
 11
602.24077489993089
 21
671.79043240580608
  0
LINE
  8
_0-1_URIMAT
  6
CONTINUOUS
 62
    7
 10
869.19967423668822
 20
674.42115415559521
 11
871.88651089816505
 21
681.06012248793126
  0
LINE
  8
_0-1_URIMAT
  6
CONTINUOUS
 62
    7
 10
871.88651089816505
 20
681.06012248793126
 11
874.29474403239089
 21
688.14912766070051
  0
LINE
  8
_0-1_URIMAT
  6
CONTINUOUS
 62
    7
 10
874.29474403239089
 20
688.14912766070051
 11
876.42757363020393
 21
695.56353926791985
  0
LINE
  8
_0-1_URIMAT
  6
CONTINUOUS
 62
    7
 10
876.42757363020393
 20
695.56353926791985
 11
878.30335801328726
 21
703.20462516269049
  0
LINE
  8
_0-1_URIMAT
  6
CONTINUOUS
 62
    7
 10
878.30335801328726
 20
703.20462516269049
 11
879.94810379396676
 21
711.03633636134202
  0
LINE
  8
_0-1_URIMAT
  6
CONTINUOUS
 62
    7
 10
879.94810379396676
 20
711.03633636134202
 11
881.37871666410853
 21
719.03071483769781
  0
LINE
  8
_0-1_URIMAT
  6
CONTINUOUS
 62
    7
 10
881.37871666410853
 20
719.03071483769781
 11
882.60472394074895
 21
727.16112989779117
  0
LINE
  8
_0-1_URIMAT
  6
CONTINUOUS
 62
    7
 10
882.60472394074895
 20
727.16112989779117
 11
883.62660657294611
 21
735.42021709476568
  0
LINE
  8
_0-1_URIMAT
  6
CONTINUOUS
 62
    7
 10
883.62660657294611
 20
735.42021709476568
 11
884.43145001488028
 21
743.83149546926119
  0
LINE
  8
_0-1_URIMAT
  6
CONTINUOUS
 62
    7
 10
884.43145001488028
 20
743.83149546926119
 11
885.00284710594553
 21
752.41888327405592
  0
LINE
  8
_0-1_URIMAT
  6
CONTINUOUS
 62
    7
 10
885.00284710594553
 20
752.41888327405592
 11
885.33827855520439
 21
761.20008949544273
  0
LINE
  8
_0-1_URIMAT
  6
CONTINUOUS
 62
    7
 10
885.33827855520439
 20
761.20008949544273
 11
885.44809838924948
 21
770.1498402638939
  0
LINE
  8
_0-1_URIMAT
  6
CONTINUOUS
 62
    7
 10
885.44809838924948
 20
770.1498402638939
 11
885.32087132330786
 21
779.20768443125371
  0
LINE
  8
_0-1_URIMAT
  6
CONTINUOUS
 62
    7
 10
885.32087132330786
 20
779.20768443125371
 11
884.94524189859669
 21
788.39922901928912
  0
LINE
  8
_0-1_URIMAT
  6
CONTINUOUS
 62
    7
 10
884.94524189859669
 20
788.39922901928912
 11
884.3333909402977
 21
797.74493135417571
  0
LINE
  8
_0-1_URIMAT
  6
CONTINUOUS
 62
    7
 10
884.3333909402977
 20
797.74493135417571
 11
883.48838108993879
 21
807.23383397072655
  0
LINE
  8
_0-1_URIMAT
  6
CONTINUOUS
 62
    7
 10
586.74154156093243
 20
807.23383397072655
 11
585.89653171059012
 21
797.74493135439615
  0
LINE
  8
_0-1_URIMAT
  6
CONTINUOUS
 62
    7
 10
585.89653171059012
 20
797.74493135439615
 11
585.28468075229716
 21
788.39922901972204
  0
LINE
  8
_0-1_URIMAT
  6
CONTINUOUS
 62
    7
 10
585.28468075229716
 20
788.39922901972204
 11
584.90905132758098
 21
779.20768443189058
  0
LINE
  8
_0-1_URIMAT
  6
CONTINUOUS
 62
    7
 10
584.90905132758098
 20
779.20768443189058
 11
584.78182426162163
 21
770.14984026473211
  0
LINE
  8
_0-1_URIMAT
  6
CONTINUOUS
 62
    7
 10
584.78182426162163
 20
770.14984026473211
 11
584.89164409564057
 21
761.20008949647876
  0
LINE
  8
_0-1_URIMAT
  6
CONTINUOUS
 62
    7
 10
584.89164409564057
 20
761.20008949647876
 11
585.22707554486237
 21
752.41888327526953
  0
LINE
  8
_0-1_URIMAT
  6
CONTINUOUS
 62
    7
 10
585.22707554486237
 20
752.41888327526953
 11
585.79847263587771
 21
743.83149547064635
  0
LINE
  8
_0-1_URIMAT
  6
CONTINUOUS
 62
    7
 10
585.79847263587771
 20
743.83149547064635
 11
586.60331607775367
 21
735.42021709631819
  0
LINE
  8
_0-1_URIMAT
  6
CONTINUOUS
 62
    7
 10
586.60331607775367
 20
735.42021709631819
 11
587.62519870988614
 21
727.16112989950966
  0
LINE
  8
_0-1_URIMAT
  6
CONTINUOUS
 62
    7
 10
587.62519870988614
 20
727.16112989950966
 11
588.85120598645301
 21
719.03071483957739
  0
LINE
  8
_0-1_URIMAT
  6
CONTINUOUS
 62
    7
 10
588.85120598645301
 20
719.03071483957739
 11
590.28181885651076
 21
711.03633636336974
  0
LINE
  8
_0-1_URIMAT
  6
CONTINUOUS
 62
    7
 10
590.28181885651076
 20
711.03633636336974
 11
591.92656463709272
 21
703.20462516485281
  0
LINE
  8
_0-1_URIMAT
  6
CONTINUOUS
 62
    7
 10
591.92656463709272
 20
703.20462516485281
 11
593.80234902006202
 21
695.56353927019915
  0
LINE
  8
_0-1_URIMAT
  6
CONTINUOUS
 62
    7
 10
593.80234902006202
 20
695.56353927019915
 11
595.93517861774
 21
688.14912766307304
  0
LINE
  8
_0-1_URIMAT
  6
CONTINUOUS
 62
    7
 10
595.93517861774
 20
688.14912766307304
 11
598.34341175181828
 21
681.06012249032949
  0
LINE
  8
_0-1_URIMAT
  6
CONTINUOUS
 62
    7
 10
598.34341175181828
 20
681.06012249032949
 11
601.03024841312833
 21
674.42115415797354
  0
LINE
  8
_0-1_URIMAT
  6
CONTINUOUS
 62
    7
 10
735.11496132543561
 20
263.0338207083173
 11
719.39453244866547
 21
263.0338207083173
  0
LINE
  8
_0-1_URIMAT
  6
CONTINUOUS
 62
    7
 10
719.39453244866547
 20
263.0338207083173
 11
711.77218222502051
 21
263.0338207083173
  0
LINE
  8
_0-1_URIMAT
  6
CONTINUOUS
 62
    7
 10
711.77218222502051
 20
263.0338207083173
 11
704.36385979253998
 21
263.0338207083173
  0
LINE
  8
_0-1_URIMAT
  6
CONTINUOUS
 62
    7
 10
704.36385979253998
 20
263.0338207083173
 11
697.16848519296695
 21
263.0338207083173
  0
LINE
  8
_0-1_URIMAT
  6
CONTINUOUS
 62
    7
 10
697.16848519296695
 20
263.0338207083173
 11
690.23770424275153
 21
263.03382070831662
  0
LINE
  8
_0-1_URIMAT
  6
CONTINUOUS
 62
    7
 10
690.23770424275153
 20
263.03382070831662
 11
683.74777747141718
 21
263.0338207083173
  0
LINE
  8
_0-1_URIMAT
  6
CONTINUOUS
 62
    7
 10
683.74777747141718
 20
263.0338207083173
 11
677.68756458347638
 21
263.0338207083173
  0
LINE
  8
_0-1_URIMAT
  6
CONTINUOUS
 62
    7
 10
677.68756458347638
 20
263.0338207083173
 11
672.03755254597263
 21
263.03382070831719
  0
LINE
  8
_0-1_URIMAT
  6
CONTINUOUS
 62
    7
 10
672.03755254597263
 20
263.03382070831719
 11
666.86682518599786
 21
263.0338207083173
  0
LINE
  8
_0-1_URIMAT
  6
CONTINUOUS
 62
    7
 10
666.86682518599786
 20
263.0338207083173
 11
662.2612470782351
 21
263.0338207083173
  0
LINE
  8
_0-1_URIMAT
  6
CONTINUOUS
 62
    7
 10
662.2612470782351
 20
263.0338207083173
 11
658.21357004187916
 21
263.0338207083173
  0
LINE
  8
_0-1_URIMAT
  6
CONTINUOUS
 62
    7
 10
658.21357004187916
 20
263.0338207083173
 11
654.72895395372847
 21
263.0338207083173
  0
LINE
  8
_0-1_URIMAT
  6
CONTINUOUS
 62
    7
 10
654.72895395372847
 20
263.0338207083173
 11
651.81512317466717
 21
263.0338207083173
  0
LINE
  8
_0-1_URIMAT
  6
CONTINUOUS
 62
    7
 10
651.81512317466717
 20
263.0338207083173
 11
646.61522266979682
 21
263.0338207083173
  0
LINE
  8
_0-1_URIMAT
  6
CONTINUOUS
 62
    7
 10
646.61522266979682
 20
263.0338207083173
 11
642.00877734900484
 21
263.0338207083173
  0
LINE
  8
_0-1_URIMAT
  6
CONTINUOUS
 62
    7
 10
642.00877734900484
 20
263.0338207083173
 11
638.00677385262861
 21
263.0338207083173
  0
LINE
  8
_0-1_URIMAT
  6
CONTINUOUS
 62
    7
 10
638.00677385262861
 20
263.0338207083173
 11
634.62552152052205
 21
263.0338207083173
  0
LINE
  8
_0-1_URIMAT
  6
CONTINUOUS
 62
    7
 10
634.62552152052205
 20
263.0338207083173
 11
631.85890502494203
 21
263.03382070831639
  0
LINE
  8
_0-1_URIMAT
  6
CONTINUOUS
 62
    7
 10
631.85890502494203
 20
263.03382070831639
 11
629.70338120789165
 21
263.0338207083173
  0
LINE
  8
_0-1_URIMAT
  6
CONTINUOUS
 62
    7
 10
629.70338120789165
 20
263.0338207083173
 11
628.15856318122746
 21
263.0338207083173
  0
LINE
  8
_0-1_URIMAT
  6
CONTINUOUS
 62
    7
 10
628.15856318122746
 20
263.0338207083173
 11
627.22701962532482
 21
263.0338207083173
  0
LINE
  8
_0-1_URIMAT
  6
CONTINUOUS
 62
    7
 10
627.22701962532482
 20
263.0338207083173
 11
626.91441856959784
 21
263.0338207083173
  0
LINE
  8
_0-1_URIMAT
  6
CONTINUOUS
 62
    7
 10
843.31550388563618
 20
263.0338207083173
 11
843.0028792625502
 21
263.0338207083173
  0
LINE
  8
_0-1_URIMAT
  6
CONTINUOUS
 62
    7
 10
843.0028792625502
 20
263.0338207083173
 11
842.071315404414
 21
263.0338207083173
  0
LINE
  8
_0-1_URIMAT
  6
CONTINUOUS
 62
    7
 10
842.071315404414
 20
263.0338207083173
 11
840.52648033086779
 21
263.0338207083173
  0
LINE
  8
_0-1_URIMAT
  6
CONTINUOUS
 62
    7
 10
840.52648033086779
 20
263.0338207083173
 11
838.37094259458081
 21
263.03382070831628
  0
LINE
  8
_0-1_URIMAT
  6
CONTINUOUS
 62
    7
 10
838.37094259458081
 20
263.03382070831628
 11
835.60431523414342
 21
263.0338207083173
  0
LINE
  8
_0-1_URIMAT
  6
CONTINUOUS
 62
    7
 10
835.60431523414342
 20
263.0338207083173
 11
832.22305502660594
 21
263.0338207083173
  0
LINE
  8
_0-1_URIMAT
  6
CONTINUOUS
 62
    7
 10
832.22305502660594
 20
263.0338207083173
 11
828.22104676271874
 21
263.0338207083173
  0
LINE
  8
_0-1_URIMAT
  6
CONTINUOUS
 62
    7
 10
828.22104676271874
 20
263.0338207083173
 11
823.61460032401782
 21
263.0338207083173
  0
LINE
  8
_0-1_URIMAT
  6
CONTINUOUS
 62
    7
 10
823.61460032401782
 20
263.0338207083173
 11
818.41470166698024
 21
263.0338207083173
  0
LINE
  8
_0-1_URIMAT
  6
CONTINUOUS
 62
    7
 10
818.41470166698024
 20
263.0338207083173
 11
815.50086305994182
 21
263.0338207083173
  0
LINE
  8
_0-1_URIMAT
  6
CONTINUOUS
 62
    7
 10
815.50086305994182
 20
263.0338207083173
 11
812.01623771763752
 21
263.0338207083173
  0
LINE
  8
_0-1_URIMAT
  6
CONTINUOUS
 62
    7
 10
812.01623771763752
 20
263.0338207083173
 11
807.96855465735586
 21
263.0338207083173
  0
LINE
  8
_0-1_URIMAT
  6
CONTINUOUS
 62
    7
 10
807.96855465735586
 20
263.0338207083173
 11
803.36297331793218
 21
263.0338207083173
  0
LINE
  8
_0-1_URIMAT
  6
CONTINUOUS
 62
    7
 10
803.36297331793218
 20
263.0338207083173
 11
798.19224565085232
 21
263.0338207083173
  0
LINE
  8
_0-1_URIMAT
  6
CONTINUOUS
 62
    7
 10
798.19224565085232
 20
263.0338207083173
 11
792.54223903814329
 21
263.0338207083173
  0
LINE
  8
_0-1_URIMAT
  6
CONTINUOUS
 62
    7
 10
792.54223903814329
 20
263.0338207083173
 11
786.48203376295236
 21
263.0338207083173
  0
LINE
  8
_0-1_URIMAT
  6
CONTINUOUS
 62
    7
 10
786.48203376295236
 20
263.0338207083173
 11
779.99211599016155
 21
263.03382070831662
  0
LINE
  8
_0-1_URIMAT
  6
CONTINUOUS
 62
    7
 10
779.99211599016155
 20
263.03382070831662
 11
773.06134731515487
 21
263.0338207083173
  0
LINE
  8
_0-1_URIMAT
  6
CONTINUOUS
 62
    7
 10
773.06134731515487
 20
263.0338207083173
 11
765.86598865276027
 21
263.0338207083173
  0
LINE
  8
_0-1_URIMAT
  6
CONTINUOUS
 62
    7
 10
765.86598865276027
 20
263.0338207083173
 11
758.45768314215183
 21
263.0338207083173
  0
LINE
  8
_0-1_URIMAT
  6
CONTINUOUS
 62
    7
 10
758.45768314215183
 20
263.0338207083173
 11
750.83535091854116
 21
263.0338207083173
  0
LINE
  8
_0-1_URIMAT
  6
CONTINUOUS
 62
    7
 10
750.83535091854116
 20
263.0338207083173
 11
735.11496132543561
 21
263.0338207083173
  0
LINE
  8
_0-1_URIMAT
  6
CONTINUOUS
 62
    7
 10
744.26211555759027
 20
925.85475149208434
 11
744.35019232881757
 21
925.85089719473228
  0
LINE
  8
_0-1_URIMAT
  6
CONTINUOUS
 62
    7
 10
835.95931844439121
 20
918.45663377188816
 11
814.09212558234276
 21
921.22727253795846
  0
LINE
  8
_0-1_URIMAT
  6
CONTINUOUS
 62
    7
 10
814.09212558234276
 20
921.22727253795846
 11
792.02809979715414
 21
923.412247652117
  0
LINE
  8
_0-1_URIMAT
  6
CONTINUOUS
 62
    7
 10
792.02809979715414
 20
923.412247652117
 11
769.76443389225016
 21
924.93462558336182
  0
LINE
  8
_0-1_URIMAT
  6
CONTINUOUS
 62
    7
 10
769.76443389225016
 20
924.93462558336182
 11
747.27111910438372
 21
925.78680019854573
  0
LINE
  8
_0-1_URIMAT
  6
CONTINUOUS
 62
    7
 10
870.11174637463045
 20
882.65829299163965
 11
868.15875240685431
 21
888.8958359291314
  0
LINE
  8
_0-1_URIMAT
  6
CONTINUOUS
 62
    7
 10
868.15875240685431
 20
888.8958359291314
 11
865.50405957393218
 21
894.89470129271853
  0
LINE
  8
_0-1_URIMAT
  6
CONTINUOUS
 62
    7
 10
865.50405957393218
 20
894.89470129271853
 11
863.90614557238268
 21
897.79037407881219
  0
LINE
  8
_0-1_URIMAT
  6
CONTINUOUS
 62
    7
 10
863.90614557238268
 20
897.79037407881219
 11
862.14271618700286
 21
900.56994297482242
  0
LINE
  8
_0-1_URIMAT
  6
CONTINUOUS
 62
    7
 10
862.14271618700286
 20
900.56994297482242
 11
860.21019712251495
 21
903.22336817009113
  0
LINE
  8
_0-1_URIMAT
  6
CONTINUOUS
 62
    7
 10
860.21019712251495
 20
903.22336817009113
 11
858.10125382740125
 21
905.74522215656077
  0
LINE
  8
_0-1_URIMAT
  6
CONTINUOUS
 62
    7
 10
858.10125382740125
 20
905.74522215656077
 11
855.80875337750899
 21
908.12568606819252
  0
LINE
  8
_0-1_URIMAT
  6
CONTINUOUS
 62
    7
 10
855.80875337750899
 20
908.12568606819252
 11
853.36301422926658
 21
910.31907481954999
  0
LINE
  8
_0-1_URIMAT
  6
CONTINUOUS
 62
    7
 10
853.36301422926658
 20
910.31907481954999
 11
850.7728765328311
 21
912.30713847284528
  0
LINE
  8
_0-1_URIMAT
  6
CONTINUOUS
 62
    7
 10
850.7728765328311
 20
912.30713847284528
 11
848.03182202960442
 21
914.08072169180627
  0
LINE
  8
_0-1_URIMAT
  6
CONTINUOUS
 62
    7
 10
848.03182202960442
 20
914.08072169180627
 11
845.14497554287856
 21
915.61576656981014
  0
LINE
  8
_0-1_URIMAT
  6
CONTINUOUS
 62
    7
 10
845.14497554287856
 20
915.61576656981014
 11
842.17020255784564
 21
916.86789961803424
  0
LINE
  8
_0-1_URIMAT
  6
CONTINUOUS
 62
    7
 10
842.17020255784564
 20
916.86789961803424
 11
839.11064197412406
 21
917.82273706856972
  0
LINE
  8
_0-1_URIMAT
  6
CONTINUOUS
 62
    7
 10
839.11064197412406
 20
917.82273706856972
 11
835.95947970378267
 21
918.45661087896633
  0
LINE
  8
_0-1_URIMAT
  6
CONTINUOUS
 62
    7
 10
883.48763234700709
 20
807.2338696171289
 11
881.26229654883877
 21
826.3698479875984
  0
LINE
  8
_0-1_URIMAT
  6
CONTINUOUS
 62
    7
 10
881.26229654883877
 20
826.3698479875984
 11
879.86518948198681
 21
835.86918266226416
  0
LINE
  8
_0-1_URIMAT
  6
CONTINUOUS
 62
    7
 10
879.86518948198681
 20
835.86918266226416
 11
878.27237934776348
 21
845.31755359613305
  0
LINE
  8
_0-1_URIMAT
  6
CONTINUOUS
 62
    7
 10
878.27237934776348
 20
845.31755359613305
 11
874.51653533457511
 21
864.06763359166961
  0
LINE
  8
_0-1_URIMAT
  6
CONTINUOUS
 62
    7
 10
874.51653533457511
 20
864.06763359166961
 11
870.11174729167203
 21
882.65828920815886
  0
LINE
  8
_0-1_URIMAT
  6
CONTINUOUS
 62
    7
 10
600.11817535919874
 20
882.65828920815886
 11
595.71338731629566
 21
864.06763359166961
  0
LINE
  8
_0-1_URIMAT
  6
CONTINUOUS
 62
    7
 10
595.71338731629566
 20
864.06763359166961
 11
591.95754330310728
 21
845.31755359613305
  0
LINE
  8
_0-1_URIMAT
  6
CONTINUOUS
 62
    7
 10
591.95754330310728
 20
845.31755359613305
 11
590.36473316888407
 21
835.86918266226416
  0
LINE
  8
_0-1_URIMAT
  6
CONTINUOUS
 62
    7
 10
590.36473316888407
 20
835.86918266226416
 11
588.96762610203222
 21
826.36984798759829
  0
LINE
  8
_0-1_URIMAT
  6
CONTINUOUS
 62
    7
 10
588.96762610203222
 20
826.36984798759829
 11
586.74229030386379
 21
807.2338696171289
  0
LINE
  8
_0-1_URIMAT
  6
CONTINUOUS
 62
    7
 10
634.27044294708764
 20
918.45661087896633
 11
631.11928067674648
 21
917.82273706856972
  0
LINE
  8
_0-1_URIMAT
  6
CONTINUOUS
 62
    7
 10
631.11928067674648
 20
917.82273706856972
 11
628.05972009302467
 21
916.86789961803424
  0
LINE
  8
_0-1_URIMAT
  6
CONTINUOUS
 62
    7
 10
628.05972009302467
 20
916.86789961803424
 11
625.08494710799232
 21
915.61576656981014
  0
LINE
  8
_0-1_URIMAT
  6
CONTINUOUS
 62
    7
 10
625.08494710799232
 20
915.61576656981014
 11
622.19810062126646
 21
914.08072169180616
  0
LINE
  8
_0-1_URIMAT
  6
CONTINUOUS
 62
    7
 10
622.19810062126646
 20
914.08072169180616
 11
619.45704611803944
 21
912.30713847284528
  0
LINE
  8
_0-1_URIMAT
  6
CONTINUOUS
 62
    7
 10
619.45704611803944
 20
912.30713847284528
 11
616.86690842160419
 21
910.31907481955011
  0
LINE
  8
_0-1_URIMAT
  6
CONTINUOUS
 62
    7
 10
616.86690842160419
 20
910.31907481955011
 11
614.42116927336178
 21
908.12568606819252
  0
LINE
  8
_0-1_URIMAT
  6
CONTINUOUS
 62
    7
 10
614.42116927336178
 20
908.12568606819252
 11
612.12866882346963
 21
905.74522215656088
  0
LINE
  8
_0-1_URIMAT
  6
CONTINUOUS
 62
    7
 10
612.12866882346963
 20
905.74522215656088
 11
610.01972552835582
 21
903.22336817009113
  0
LINE
  8
_0-1_URIMAT
  6
CONTINUOUS
 62
    7
 10
610.01972552835582
 20
903.22336817009113
 11
608.08720646386757
 21
900.56994297482242
  0
LINE
  8
_0-1_URIMAT
  6
CONTINUOUS
 62
    7
 10
608.08720646386757
 20
900.56994297482242
 11
606.32377707848809
 21
897.79037407881207
  0
LINE
  8
_0-1_URIMAT
  6
CONTINUOUS
 62
    7
 10
606.32377707848809
 20
897.79037407881207
 11
604.7258630769387
 21
894.89470129271876
  0
LINE
  8
_0-1_URIMAT
  6
CONTINUOUS
 62
    7
 10
604.7258630769387
 20
894.89470129271876
 11
602.07117024401645
 21
888.8958359291314
  0
LINE
  8
_0-1_URIMAT
  6
CONTINUOUS
 62
    7
 10
602.07117024401645
 20
888.8958359291314
 11
600.11817627624054
 21
882.65829299163965
  0
LINE
  8
_0-1_URIMAT
  6
CONTINUOUS
 62
    7
 10
637.25483836121668
 20
918.85766563539368
 11
659.12729317107232
 21
921.56174621271168
  0
LINE
  8
_0-1_URIMAT
  6
CONTINUOUS
 62
    7
 10
659.12729317107232
 20
921.56174621271168
 11
681.19389072313697
 21
923.65717280219735
  0
LINE
  8
_0-1_URIMAT
  6
CONTINUOUS
 62
    7
 10
681.19389072313697
 20
923.65717280219735
 11
703.461524578139
 21
925.0872894729091
  0
LINE
  8
_0-1_URIMAT
  6
CONTINUOUS
 62
    7
 10
703.461524578139
 20
925.0872894729091
 11
725.96780709328049
 21
925.85475149208434
  0
LINE
  8
_0-1_URIMAT
  6
CONTINUOUS
 62
    7
 10
725.8797303220532
 20
925.85089719473228
 11
725.96780709328049
 21
925.85475149208434
  0
LINE
  8
_0-1_URIMAT
  6
CONTINUOUS
 62
    7
 10
601.63223199977744
 20
1014.189344710894
 11
618.30503488389331
 21
1015.102588597604
  0
LINE
  8
_0-1_URIMAT
  6
CONTINUOUS
 62
    7
 10
618.30523802460947
 20
1015.102598982265
 11
634.98131265091672
 21
1015.893654425374
  0
LINE
  8
_0-1_URIMAT
  6
CONTINUOUS
 62
    7
 10
634.98131265091672
 20
1015.893654425374
 11
634.98175703106835
 21
1015.8936738809369
  0
LINE
  8
_0-1_URIMAT
  6
CONTINUOUS
 62
    7
 10
634.98175703106994
 20
1015.8936738809369
 11
668.3450935637536
 21
1017.111807468856
  0
LINE
  8
_0-1_URIMAT
  6
CONTINUOUS
 62
    7
 10
668.3450935637536
 20
1017.111807468856
 11
701.72267296909046
 21
1017.841778272915
  0
LINE
  8
_0-1_URIMAT
  6
CONTINUOUS
 62
    7
 10
701.72278976423774
 20
1017.841779982592
 11
730.13753367890512
 21
1018.0800397415889
  0
LINE
  8
_0-1_URIMAT
  6
CONTINUOUS
 62
    7
 10
730.13753367890512
 20
1018.0800397415889
 11
735.11496132543561
 21
1018.0853840474079
  0
LINE
  8
_0-1_URIMAT
  6
CONTINUOUS
 62
    7
 10
735.11496132549723
 20
935.93455829133677
 11
725.92859788585019
 21
935.93101866378924
  0
LINE
  8
_0-1_URIMAT
  6
CONTINUOUS
 62
    7
 10
632.27793226229562
 20
927.32983631460285
 11
643.78572590416558
 21
929.17069997387466
  0
LINE
  8
_0-1_URIMAT
  6
CONTINUOUS
 62
    7
 10
643.78572590416558
 20
929.17069997387466
 11
655.35123957219684
 21
930.79553117015234
  0
LINE
  8
_0-1_URIMAT
  6
CONTINUOUS
 62
    7
 10
655.35123957219684
 20
930.79553117015234
 11
666.9712665787772
 21
932.21326087251509
  0
LINE
  8
_0-1_URIMAT
  6
CONTINUOUS
 62
    7
 10
666.9712665787772
 20
932.21326087251509
 11
678.64550681646915
 21
933.42161574419333
  0
LINE
  8
_0-1_URIMAT
  6
CONTINUOUS
 62
    7
 10
678.64550681646915
 20
933.42161574419333
 11
690.37465897495007
 21
934.41450942948733
  0
LINE
  8
_0-1_URIMAT
  6
CONTINUOUS
 62
    7
 10
690.37465897495007
 20
934.41450942948733
 11
702.16051192977965
 21
935.18234327186189
  0
LINE
  8
_0-1_URIMAT
  6
CONTINUOUS
 62
    7
 10
702.16051192977965
 20
935.18234327186189
 11
714.00788455848419
 21
935.70392125601097
  0
LINE
  8
_0-1_URIMAT
  6
CONTINUOUS
 62
    7
 10
714.00788455848419
 20
935.70392125601097
 11
725.92859788585019
 21
935.93101866378924
  0
LINE
  8
_0-1_URIMAT
  6
CONTINUOUS
 62
    7
 10
602.19978345450158
 20
1011.2308929915619
 11
604.70949810590866
 21
1000.687412956915
  0
LINE
  8
_0-1_URIMAT
  6
CONTINUOUS
 62
    7
 10
604.70949810590866
 20
1000.687412956915
 11
607.83686017897275
 21
990.17593459678266
  0
LINE
  8
_0-1_URIMAT
  6
CONTINUOUS
 62
    7
 10
607.83686017897275
 20
990.17593459678266
 11
611.35320242501973
 21
979.68619171408545
  0
LINE
  8
_0-1_URIMAT
  6
CONTINUOUS
 62
    7
 10
611.35320242501973
 20
979.68619171408545
 11
615.13446312951316
 21
969.20822407655282
  0
LINE
  8
_0-1_URIMAT
  6
CONTINUOUS
 62
    7
 10
615.13446312951316
 20
969.20822407655282
 11
619.13346151220321
 21
958.73688350445945
  0
LINE
  8
_0-1_URIMAT
  6
CONTINUOUS
 62
    7
 10
619.13346151220321
 20
958.73688350445945
 11
623.33462596953813
 21
948.27066993815367
  0
LINE
  8
_0-1_URIMAT
  6
CONTINUOUS
 62
    7
 10
623.33462596953813
 20
948.27066993815367
 11
632.2779322626817
 21
927.32983631372428
  0
LINE
  8
_0-1_URIMAT
  6
CONTINUOUS
 62
    7
 10
744.30132476502035
 20
935.93101866378924
 11
756.22203809238669
 21
935.70392125601085
  0
LINE
  8
_0-1_URIMAT
  6
CONTINUOUS
 62
    7
 10
756.22203809238669
 20
935.70392125601085
 11
768.06941072109111
 21
935.18234327186189
  0
LINE
  8
_0-1_URIMAT
  6
CONTINUOUS
 62
    7
 10
768.06941072109111
 20
935.18234327186189
 11
779.85526367592069
 21
934.41450942948733
  0
LINE
  8
_0-1_URIMAT
  6
CONTINUOUS
 62
    7
 10
779.85526367592069
 20
934.41450942948733
 11
791.58441583440185
 21
933.42161574419333
  0
LINE
  8
_0-1_URIMAT
  6
CONTINUOUS
 62
    7
 10
791.58441583440185
 20
933.42161574419333
 11
803.25865607209323
 21
932.21326087251509
  0
LINE
  8
_0-1_URIMAT
  6
CONTINUOUS
 62
    7
 10
803.25865607209323
 20
932.21326087251509
 11
814.87868307867381
 21
930.79553117015234
  0
LINE
  8
_0-1_URIMAT
  6
CONTINUOUS
 62
    7
 10
814.87868307867381
 20
930.79553117015234
 11
826.44419674670518
 21
929.17069997387466
  0
LINE
  8
_0-1_URIMAT
  6
CONTINUOUS
 62
    7
 10
826.44419674670518
 20
929.17069997387466
 11
837.95199038857515
 21
927.32983631460285
  0
LINE
  8
_0-1_URIMAT
  6
CONTINUOUS
 62
    7
 10
735.11496132537365
 20
935.93455829133677
 11
744.30132476502035
 21
935.93101866378924
  0
LINE
  8
_0-1_URIMAT
  6
CONTINUOUS
 62
    7
 10
735.11496132543561
 20
1018.0853840474079
 11
740.09238897196564
 21
1018.0800397415889
  0
LINE
  8
_0-1_URIMAT
  6
CONTINUOUS
 62
    7
 10
740.09238897196564
 20
1018.0800397415889
 11
768.5071328866328
 21
1017.841779982592
  0
LINE
  8
_0-1_URIMAT
  6
CONTINUOUS
 62
    7
 10
768.50724968178008
 20
1017.841778272915
 11
801.88482908711716
 21
1017.111807468856
  0
LINE
  8
_0-1_URIMAT
  6
CONTINUOUS
 62
    7
 10
801.88482908711716
 20
1017.111807468856
 11
835.24816561980094
 21
1015.8936738809369
  0
LINE
  8
_0-1_URIMAT
  6
CONTINUOUS
 62
    7
 10
835.24816561980094
 20
1015.8936738809369
 11
835.24860999995564
 21
1015.893654425374
  0
LINE
  8
_0-1_URIMAT
  6
CONTINUOUS
 62
    7
 10
835.24860999995405
 20
1015.893654425374
 11
851.9246846262614
 21
1015.102598982265
  0
LINE
  8
_0-1_URIMAT
  6
CONTINUOUS
 62
    7
 10
851.92488776697734
 20
1015.102588597604
 11
868.59769065109344
 21
1014.189344710894
  0
LINE
  8
_0-1_URIMAT
  6
CONTINUOUS
 62
    7
 10
837.95199038818952
 20
927.32983631372428
 11
846.8952966811579
 21
948.27066993772746
  0
LINE
  8
_0-1_URIMAT
  6
CONTINUOUS
 62
    7
 10
846.8952966811579
 20
948.27066993772746
 11
851.09646113841699
 21
958.73688350381996
  0
LINE
  8
_0-1_URIMAT
  6
CONTINUOUS
 62
    7
 10
851.09646113841699
 20
958.73688350381996
 11
855.09545952104065
 21
969.20822407569994
  0
LINE
  8
_0-1_URIMAT
  6
CONTINUOUS
 62
    7
 10
855.09545952104065
 20
969.20822407569994
 11
858.87672022547803
 21
979.68619171301827
  0
LINE
  8
_0-1_URIMAT
  6
CONTINUOUS
 62
    7
 10
858.87672022547803
 20
979.68619171301827
 11
862.39306247148908
 21
990.17593459550005
  0
LINE
  8
_0-1_URIMAT
  6
CONTINUOUS
 62
    7
 10
862.39306247148908
 20
990.17593459550005
 11
865.52042454455374
 21
1000.6874129554146
  0
LINE
  8
_0-1_URIMAT
  6
CONTINUOUS
 62
    7
 10
865.52042454455374
 20
1000.6874129554146
 11
868.03013919601846
 21
1011.230892989843
  0
LINE
  8
_0-1_URIMAT
  6
CONTINUOUS
 62
    7
 10
601.63223200680113
 20
1014.1893444707819
 11
599.41102108327709
 21
1013.9356119804723
  0
LINE
  8
_0-1_URIMAT
  6
CONTINUOUS
 62
    7
 10
599.41102108327709
 20
1013.9356119804723
 11
597.23118584256963
 21
1013.4387777967393
  0
LINE
  8
_0-1_URIMAT
  6
CONTINUOUS
 62
    7
 10
597.23118584256963
 20
1013.4387777967393
 11
595.1178074132041
 21
1012.7080137848454
  0
LINE
  8
_0-1_URIMAT
  6
CONTINUOUS
 62
    7
 10
595.1178074132041
 20
1012.7080137848454
 11
593.09303139753501
 21
1011.7585020208856
  0
LINE
  8
_0-1_URIMAT
  6
CONTINUOUS
 62
    7
 10
593.09303139753501
 20
1011.7585020208856
 11
591.17464115959433
 21
1010.6090794191795
  0
LINE
  8
_0-1_URIMAT
  6
CONTINUOUS
 62
    7
 10
591.17464115959433
 20
1010.6090794191795
 11
589.37502463785858
 21
1009.2809461684544
  0
LINE
  8
_0-1_URIMAT
  6
CONTINUOUS
 62
    7
 10
589.37502463785858
 20
1009.2809461684544
 11
586.16130351365632
 21
1006.1737930800236
  0
LINE
  8
_0-1_URIMAT
  6
CONTINUOUS
 62
    7
 10
586.16130351365632
 20
1006.1737930800236
 11
583.47738746097752
 21
1002.5964339451859
  0
LINE
  8
_0-1_URIMAT
  6
CONTINUOUS
 62
    7
 10
583.47738746097752
 20
1002.5964339451859
 11
581.3147418249805
 21
998.67987537654039
  0
LINE
  8
_0-1_URIMAT
  6
CONTINUOUS
 62
    7
 10
581.3147418249805
 20
998.67987537654039
 11
579.64946860268742
 21
994.52647015966431
  0
LINE
  8
_0-1_URIMAT
  6
CONTINUOUS
 62
    7
 10
579.64946860268742
 20
994.52647015966431
 11
578.4529914879381
 21
990.21440600412483
  0
LINE
  8
_0-1_URIMAT
  6
CONTINUOUS
 62
    7
 10
589.87086017898081
 20
885.95242524833338
 11
591.06426421415062
 21
889.63363382558213
  0
LINE
  8
_0-1_URIMAT
  6
CONTINUOUS
 62
    7
 10
591.06426421415062
 20
889.63363382558213
 11
592.4715364011331
 21
893.23829557612748
  0
LINE
  8
_0-1_URIMAT
  6
CONTINUOUS
 62
    7
 10
592.4715364011331
 20
893.23829557612748
 11
594.09176323493852
 21
896.76703690332055
  0
LINE
  8
_0-1_URIMAT
  6
CONTINUOUS
 62
    7
 10
594.09176323493852
 20
896.76703690332055
 11
595.93254853126882
 21
900.21493809192099
  0
LINE
  8
_0-1_URIMAT
  6
CONTINUOUS
 62
    7
 10
595.93254853126882
 20
900.21493809192099
 11
597.99311908853655
 21
903.56252259749464
  0
LINE
  8
_0-1_URIMAT
  6
CONTINUOUS
 62
    7
 10
597.99311908853655
 20
903.56252259749464
 11
600.24638064498083
 21
906.76497273238362
  0
LINE
  8
_0-1_URIMAT
  6
CONTINUOUS
 62
    7
 10
600.24638064498083
 20
906.76497273238362
 11
602.69052545673662
 21
909.81975743422162
  0
LINE
  8
_0-1_URIMAT
  6
CONTINUOUS
 62
    7
 10
602.69052545673662
 20
909.81975743422162
 11
605.34224877967722
 21
912.71269211372327
  0
LINE
  8
_0-1_URIMAT
  6
CONTINUOUS
 62
    7
 10
605.34224877967722
 20
912.71269211372327
 11
608.20301043224344
 21
915.42965551671977
  0
LINE
  8
_0-1_URIMAT
  6
CONTINUOUS
 62
    7
 10
608.20301043224344
 20
915.42965551671977
 11
611.22916794216416
 21
917.92208056041636
  0
LINE
  8
_0-1_URIMAT
  6
CONTINUOUS
 62
    7
 10
611.22916794216416
 20
917.92208056041636
 11
614.41431335651293
 21
920.17892983740694
  0
LINE
  8
_0-1_URIMAT
  6
CONTINUOUS
 62
    7
 10
614.41431335651293
 20
920.17892983740694
 11
617.76336454348381
 21
922.19296285937684
  0
LINE
  8
_0-1_URIMAT
  6
CONTINUOUS
 62
    7
 10
617.76336454348381
 20
922.19296285937684
 11
621.25960789453949
 21
923.93989861549084
  0
LINE
  8
_0-1_URIMAT
  6
CONTINUOUS
 62
    7
 10
621.25960789453949
 20
923.93989861549084
 11
624.84409543597666
 21
925.3829253972151
  0
LINE
  8
_0-1_URIMAT
  6
CONTINUOUS
 62
    7
 10
624.84409543597666
 20
925.3829253972151
 11
628.51563012953101
 21
926.51626625937285
  0
LINE
  8
_0-1_URIMAT
  6
CONTINUOUS
 62
    7
 10
628.51563012953101
 20
926.51626625937285
 11
632.27776292615158
 21
927.32980942486756
  0
LINE
  8
_0-1_URIMAT
  6
CONTINUOUS
 62
    7
 10
891.77693116293278
 20
990.21440600412483
 11
890.58045404818324
 21
994.52647015966431
  0
LINE
  8
_0-1_URIMAT
  6
CONTINUOUS
 62
    7
 10
890.58045404818324
 20
994.52647015966431
 11
888.91518082589061
 21
998.6798753765405
  0
LINE
  8
_0-1_URIMAT
  6
CONTINUOUS
 62
    7
 10
888.91518082589061
 20
998.6798753765405
 11
886.75253518989313
 21
1002.5964339451855
  0
LINE
  8
_0-1_URIMAT
  6
CONTINUOUS
 62
    7
 10
886.75253518989313
 20
1002.5964339451855
 11
884.06861913721434
 21
1006.1737930800236
  0
LINE
  8
_0-1_URIMAT
  6
CONTINUOUS
 62
    7
 10
884.06861913721434
 20
1006.1737930800236
 11
880.85489801301218
 21
1009.2809461684545
  0
LINE
  8
_0-1_URIMAT
  6
CONTINUOUS
 62
    7
 10
880.85489801301218
 20
1009.2809461684545
 11
879.05528149127644
 21
1010.6090794191794
  0
LINE
  8
_0-1_URIMAT
  6
CONTINUOUS
 62
    7
 10
879.05528149127644
 20
1010.6090794191794
 11
877.13689125333576
 21
1011.7585020208856
  0
LINE
  8
_0-1_URIMAT
  6
CONTINUOUS
 62
    7
 10
877.13689125333576
 20
1011.7585020208856
 11
875.11211523766667
 21
1012.7080137848455
  0
LINE
  8
_0-1_URIMAT
  6
CONTINUOUS
 62
    7
 10
875.11211523766667
 20
1012.7080137848455
 11
872.9987368083016
 21
1013.4387777967391
  0
LINE
  8
_0-1_URIMAT
  6
CONTINUOUS
 62
    7
 10
872.9987368083016
 20
1013.4387777967391
 11
870.81890156759368
 21
1013.9356119804722
  0
LINE
  8
_0-1_URIMAT
  6
CONTINUOUS
 62
    7
 10
870.81890156759368
 20
1013.9356119804722
 11
868.59769064406998
 21
1014.1893444707819
  0
LINE
  8
_0-1_URIMAT
  6
CONTINUOUS
 62
    7
 10
837.95215972471919
 20
927.32980942486756
 11
841.71429252133907
 21
926.51626625937296
  0
LINE
  8
_0-1_URIMAT
  6
CONTINUOUS
 62
    7
 10
841.71429252133907
 20
926.51626625937296
 11
845.38582721489297
 21
925.38292539721578
  0
LINE
  8
_0-1_URIMAT
  6
CONTINUOUS
 62
    7
 10
845.38582721489297
 20
925.38292539721578
 11
848.97031475632934
 21
923.93989861549164
  0
LINE
  8
_0-1_URIMAT
  6
CONTINUOUS
 62
    7
 10
848.97031475632934
 20
923.93989861549164
 11
852.46655810738525
 21
922.19296285937821
  0
LINE
  8
_0-1_URIMAT
  6
CONTINUOUS
 62
    7
 10
852.46655810738525
 20
922.19296285937821
 11
855.81560929435488
 21
920.17892983740853
  0
LINE
  8
_0-1_URIMAT
  6
CONTINUOUS
 62
    7
 10
855.81560929435488
 20
920.17892983740853
 11
859.00075470870376
 21
917.92208056041863
  0
LINE
  8
_0-1_URIMAT
  6
CONTINUOUS
 62
    7
 10
859.00075470870376
 20
917.92208056041863
 11
862.02691221862437
 21
915.42965551672205
  0
LINE
  8
_0-1_URIMAT
  6
CONTINUOUS
 62
    7
 10
862.02691221862437
 20
915.42965551672205
 11
864.88767387119003
 21
912.71269211372691
  0
LINE
  8
_0-1_URIMAT
  6
CONTINUOUS
 62
    7
 10
864.88767387119003
 20
912.71269211372691
 11
867.53939719413028
 21
909.81975743422594
  0
LINE
  8
_0-1_URIMAT
  6
CONTINUOUS
 62
    7
 10
867.53939719413028
 20
909.81975743422594
 11
869.98354200588687
 21
906.76497273238817
  0
LINE
  8
_0-1_URIMAT
  6
CONTINUOUS
 62
    7
 10
869.98354200588687
 20
906.76497273238817
 11
872.23680356233239
 21
903.56252259749794
  0
LINE
  8
_0-1_URIMAT
  6
CONTINUOUS
 62
    7
 10
872.23680356233239
 20
903.56252259749794
 11
874.29737411960059
 21
900.21493809192395
  0
LINE
  8
_0-1_URIMAT
  6
CONTINUOUS
 62
    7
 10
874.29737411960059
 20
900.21493809192395
 11
876.13815941593134
 21
896.76703690332271
  0
LINE
  8
_0-1_URIMAT
  6
CONTINUOUS
 62
    7
 10
876.13815941593134
 20
896.76703690332271
 11
877.75838624973698
 21
893.23829557612907
  0
LINE
  8
_0-1_URIMAT
  6
CONTINUOUS
 62
    7
 10
877.75838624973698
 20
893.23829557612907
 11
879.16565843671992
 21
889.63363382558304
  0
LINE
  8
_0-1_URIMAT
  6
CONTINUOUS
 62
    7
 10
879.16565843671992
 20
889.63363382558304
 11
880.35906247189029
 21
885.95242524833338
  0
LINE
  8
_0-1_URIMAT
  6
CONTINUOUS
 62
    7
 10
735.11496132543561
 20
925.86278091166514
 11
728.88958096502472
 21
925.86169819738472
  0
LINE
  8
_0-1_URIMAT
  6
CONTINUOUS
 62
    7
 10
741.3403416858116
 20
925.86169819738472
 11
735.11496132543561
 21
925.86278091166514
  0
LINE
  8
_0-1_URIMAT
  6
CONTINUOUS
 62
    7
 10
606.72293306696064
 20
322.00962376103575
 11
606.86806599762644
 21
321.57106739827804
  0
LINE
  8
_0-1_URIMAT
  6
CONTINUOUS
 62
    7
 10
606.86806599762644
 20
321.57106739827804
 11
607.10976471376704
 21
320.85040373809965
  0
LINE
  8
_0-1_URIMAT
  6
CONTINUOUS
 62
    7
 10
607.10976471376704
 20
320.85040373809965
 11
607.50252972899568
 21
319.6598593396186
  0
LINE
  8
_0-1_URIMAT
  6
CONTINUOUS
 62
    7
 10
607.50252972899568
 20
319.6598593396186
 11
608.06021166318259
 21
317.92272051281065
  0
LINE
  8
_0-1_URIMAT
  6
CONTINUOUS
 62
    7
 10
608.06021166318259
 20
317.92272051281065
 11
610.43359506662864
 21
310.4211999323063
  0
LINE
  8
_0-1_URIMAT
  6
CONTINUOUS
 62
    7
 10
610.43359506662864
 20
310.4211999323063
 11
615.10843455760243
 21
295.39623561377186
  0
LINE
  8
_0-1_URIMAT
  6
CONTINUOUS
 62
    7
 10
615.10843455760243
 20
295.39623561377186
 11
624.03658117691418
 21
265.22561466679371
  0
LINE
  8
_0-1_URIMAT
  6
CONTINUOUS
 62
    7
 10
846.18449502098144
 20
265.22632275377463
 11
855.1602258073359
 21
295.63174476268932
  0
LINE
  8
_0-1_URIMAT
  6
CONTINUOUS
 62
    7
 10
855.1602258073359
 20
295.63174476268932
 11
857.46381826701065
 21
303.08804991116858
  0
LINE
  8
_0-1_URIMAT
  6
CONTINUOUS
 62
    7
 10
857.46381826701065
 20
303.08804991116858
 11
859.73430125317736
 21
310.30807203450649
  0
LINE
  8
_0-1_URIMAT
  6
CONTINUOUS
 62
    7
 10
859.73430125317736
 20
310.30807203450649
 11
860.81958891765896
 21
313.70699346660853
  0
LINE
  8
_0-1_URIMAT
  6
CONTINUOUS
 62
    7
 10
860.81958891765896
 20
313.70699346660853
 11
861.82930494307629
 21
316.83722660367595
  0
LINE
  8
_0-1_URIMAT
  6
CONTINUOUS
 62
    7
 10
861.82930494307629
 20
316.83722660367595
 11
862.73301487723529
 21
319.62111740372267
  0
LINE
  8
_0-1_URIMAT
  6
CONTINUOUS
 62
    7
 10
862.73301487723529
 20
319.62111740372267
 11
863.50698958391024
 21
322.00962376103575
  0
LINE
  8
_0-1_URIMAT
  6
CONTINUOUS
 62
    7
 10
735.11495965772121
 20
607.62449604324797
 11
717.89216254369182
 21
607.45982975918013
  0
LINE
  8
_0-1_URIMAT
  6
CONTINUOUS
 62
    7
 10
717.89216254369182
 20
607.45982975918013
 11
709.4740180654702
 21
607.32082275799837
  0
LINE
  8
_0-1_URIMAT
  6
CONTINUOUS
 62
    7
 10
709.4740180654702
 20
607.32082275799837
 11
701.28896792625539
 21
607.23991753100722
  0
LINE
  8
_0-1_URIMAT
  6
CONTINUOUS
 62
    7
 10
701.28896792625539
 20
607.23991753100722
 11
693.42067051479307
 21
607.31311282276578
  0
LINE
  8
_0-1_URIMAT
  6
CONTINUOUS
 62
    7
 10
693.42067051479307
 20
607.31311282276578
 11
685.95767518539628
 21
607.63037372206963
  0
LINE
  8
_0-1_URIMAT
  6
CONTINUOUS
 62
    7
 10
685.95767518539628
 20
607.63037372206963
 11
678.98553807428061
 21
608.25123202761903
  0
LINE
  8
_0-1_URIMAT
  6
CONTINUOUS
 62
    7
 10
678.98553807428061
 20
608.25123202761903
 11
672.57689446891697
 21
609.18360331314329
  0
LINE
  8
_0-1_URIMAT
  6
CONTINUOUS
 62
    7
 10
672.57689446891697
 20
609.18360331314329
 11
666.76144156694931
 21
610.36671002414277
  0
LINE
  8
_0-1_URIMAT
  6
CONTINUOUS
 62
    7
 10
666.76144156694931
 20
610.36671002414277
 11
661.54600135725809
 21
611.70341456981668
  0
LINE
  8
_0-1_URIMAT
  6
CONTINUOUS
 62
    7
 10
661.54600135725809
 20
611.70341456981668
 11
659.40239298191761
 21
612.3510684736932
  0
LINE
  8
_0-1_URIMAT
  6
CONTINUOUS
 62
    7
 10
659.40239298191761
 20
612.3510684736932
 11
657.47774724442933
 21
613.1581240697568
  0
LINE
  8
_0-1_URIMAT
  6
CONTINUOUS
 62
    7
 10
657.47774724442933
 20
613.1581240697568
 11
655.32364099136623
 21
614.31345712907921
  0
LINE
  8
_0-1_URIMAT
  6
CONTINUOUS
 62
    7
 10
655.32364099136623
 20
614.31345712907921
 11
653.01488542934373
 21
615.60145858326291
  0
LINE
  8
_0-1_URIMAT
  6
CONTINUOUS
 62
    7
 10
653.01488542934373
 20
615.60145858326291
 11
648.50312072421559
 21
618.19650890445075
  0
LINE
  8
_0-1_URIMAT
  6
CONTINUOUS
 62
    7
 10
648.50312072421559
 20
618.19650890445075
 11
644.18841845813699
 21
620.88144483350379
  0
LINE
  8
_0-1_URIMAT
  6
CONTINUOUS
 62
    7
 10
644.18841845813699
 20
620.88144483350379
 11
640.11782152505531
 21
623.81480880099377
  0
LINE
  8
_0-1_URIMAT
  6
CONTINUOUS
 62
    7
 10
640.11782152505531
 20
623.81480880099377
 11
636.14287956123757
 21
627.20630578596524
  0
LINE
  8
_0-1_URIMAT
  6
CONTINUOUS
 62
    7
 10
834.08671897450312
 20
627.20568259350261
 11
830.11215022794272
 21
623.81484478640459
  0
LINE
  8
_0-1_URIMAT
  6
CONTINUOUS
 62
    7
 10
830.11215022794272
 20
623.81484478640459
 11
826.0415216586523
 21
620.88145622029389
  0
LINE
  8
_0-1_URIMAT
  6
CONTINUOUS
 62
    7
 10
826.0415216586523
 20
620.88145622029389
 11
821.72687700143649
 21
618.19657204181805
  0
LINE
  8
_0-1_URIMAT
  6
CONTINUOUS
 62
    7
 10
821.72687700143649
 20
618.19657204181805
 11
817.21501159967363
 21
615.60141130516763
  0
LINE
  8
_0-1_URIMAT
  6
CONTINUOUS
 62
    7
 10
817.21501159967363
 20
615.60141130516763
 11
814.90335496352872
 21
614.31192127258066
  0
LINE
  8
_0-1_URIMAT
  6
CONTINUOUS
 62
    7
 10
814.90335496352872
 20
614.31192127258066
 11
812.75357155834888
 21
613.15879164481532
  0
LINE
  8
_0-1_URIMAT
  6
CONTINUOUS
 62
    7
 10
812.75357155834888
 20
613.15879164481532
 11
810.8289686793754
 21
612.35159070036604
  0
LINE
  8
_0-1_URIMAT
  6
CONTINUOUS
 62
    7
 10
810.8289686793754
 20
612.35159070036604
 11
808.68342214021959
 21
611.70327264007642
  0
LINE
  8
_0-1_URIMAT
  6
CONTINUOUS
 62
    7
 10
808.68342214021959
 20
611.70327264007642
 11
803.46848057121121
 21
610.36671221829988
  0
LINE
  8
_0-1_URIMAT
  6
CONTINUOUS
 62
    7
 10
803.46848057121121
 20
610.36671221829988
 11
797.65298472520839
 21
609.18359568786979
  0
LINE
  8
_0-1_URIMAT
  6
CONTINUOUS
 62
    7
 10
797.65298472520839
 20
609.18359568786979
 11
791.24433794987294
 21
608.25122586587576
  0
LINE
  8
_0-1_URIMAT
  6
CONTINUOUS
 62
    7
 10
791.24433794987294
 20
608.25122586587576
 11
784.27220364002062
 21
607.63037132765668
  0
LINE
  8
_0-1_URIMAT
  6
CONTINUOUS
 62
    7
 10
784.27220364002062
 20
607.63037132765668
 11
776.80921527382247
 21
607.31311191139911
  0
LINE
  8
_0-1_URIMAT
  6
CONTINUOUS
 62
    7
 10
776.80921527382247
 20
607.31311191139911
 11
768.94092376875096
 21
607.23991759361422
  0
LINE
  8
_0-1_URIMAT
  6
CONTINUOUS
 62
    7
 10
768.94092376875096
 20
607.23991759361422
 11
760.75588041482308
 21
607.32082321115774
  0
LINE
  8
_0-1_URIMAT
  6
CONTINUOUS
 62
    7
 10
760.75588041482308
 20
607.32082321115774
 11
752.33774306313409
 21
607.45983009659005
  0
LINE
  8
_0-1_URIMAT
  6
CONTINUOUS
 62
    7
 10
752.33774306313409
 20
607.45983009659005
 11
735.11496316493423
 21
607.62450360722345
  0
LINE
  8
_0-1_URIMAT
  6
CONTINUOUS
 62
    7
 10
636.16646241767455
 20
627.18834694755992
 11
631.96835008866707
 21
631.21116810091905
  0
LINE
  8
_0-1_URIMAT
  6
CONTINUOUS
 62
    7
 10
631.96835008866707
 20
631.21116810091905
 11
627.8849634178432
 21
635.39785227020456
  0
LINE
  8
_0-1_URIMAT
  6
CONTINUOUS
 62
    7
 10
627.8849634178432
 20
635.39785227020456
 11
620.11553470621777
 21
644.09737025815502
  0
LINE
  8
_0-1_URIMAT
  6
CONTINUOUS
 62
    7
 10
620.11553470621777
 20
644.09737025815502
 11
616.46472015750509
 21
648.61705926724914
  0
LINE
  8
_0-1_URIMAT
  6
CONTINUOUS
 62
    7
 10
616.46472015750509
 20
648.61705926724914
 11
612.98455220545554
 21
653.31400690817599
  0
LINE
  8
_0-1_URIMAT
  6
CONTINUOUS
 62
    7
 10
612.98455220545554
 20
653.31400690817599
 11
609.68319898922675
 21
658.24198548459651
  0
LINE
  8
_0-1_URIMAT
  6
CONTINUOUS
 62
    7
 10
609.68319898922675
 20
658.24198548459651
 11
606.56879308165082
 21
663.45460542344221
  0
LINE
  8
_0-1_URIMAT
  6
CONTINUOUS
 62
    7
 10
863.65826109482179
 20
663.44994087716963
 11
860.54416395716248
 21
658.23795698666617
  0
LINE
  8
_0-1_URIMAT
  6
CONTINUOUS
 62
    7
 10
860.54416395716248
 20
658.23795698666617
 11
857.24305429545256
 21
653.31072718031487
  0
LINE
  8
_0-1_URIMAT
  6
CONTINUOUS
 62
    7
 10
857.24305429545256
 20
653.31072718031487
 11
853.7631735526744
 21
648.61444308124839
  0
LINE
  8
_0-1_URIMAT
  6
CONTINUOUS
 62
    7
 10
853.7631735526744
 20
648.61444308124839
 11
850.11270006841232
 21
644.09536181539181
  0
LINE
  8
_0-1_URIMAT
  6
CONTINUOUS
 62
    7
 10
850.11270006841232
 20
644.09536181539181
 11
842.34404681750118
 21
635.39688730347552
  0
LINE
  8
_0-1_URIMAT
  6
CONTINUOUS
 62
    7
 10
842.34404681750118
 20
635.39688730347552
 11
834.06403404542982
 21
627.18725249207659
  0
LINE
  8
_0-1_URIMAT
  6
CONTINUOUS
 62
    7
 10
735.42384237486749
 20
1520.7552570237
 11
735.42384237486749
 21
1523.5939089836861
  0
LINE
  8
_0-1_URIMAT
  6
CONTINUOUS
 62
    7
 10
586.6877879661423
 20
1509.8370004817741
 11
586.68354909084803
 21
1509.830437575945
  0
LINE
  8
_0-1_URIMAT
  6
CONTINUOUS
 62
    7
 10
735.42384202054245
 20
1449.1683097413629
 11
735.42384202054245
 21
1456.006522852303
  0
LINE
  8
_0-1_URIMAT
  6
CONTINUOUS
 62
    7
 10
735.42384201999709
 20
1457.344348326525
 11
735.42384201999709
 21
1457.344348326525
  0
LINE
  8
_0-1_URIMAT
  6
CONTINUOUS
 62
    7
 10
735.42384201999709
 20
1457.344348326525
 11
745.35378334369249
 21
1458.2138214311869
  0
LINE
  8
_0-1_URIMAT
  6
CONTINUOUS
 62
    7
 10
745.35378334369249
 20
1458.2138214311869
 11
754.98200842506287
 21
1460.7958222448924
  0
LINE
  8
_0-1_URIMAT
  6
CONTINUOUS
 62
    7
 10
754.98200842506287
 20
1460.7958222448924
 11
764.0159685171277
 21
1465.0118979794722
  0
LINE
  8
_0-1_URIMAT
  6
CONTINUOUS
 62
    7
 10
764.0159685171277
 20
1465.0118979794722
 11
772.18117131389396
 21
1470.733945307169
  0
LINE
  8
_0-1_URIMAT
  6
CONTINUOUS
 62
    7
 10
772.18117131389396
 20
1470.733945307169
 11
779.22952126017389
 21
1477.7881027154257
  0
LINE
  8
_0-1_URIMAT
  6
CONTINUOUS
 62
    7
 10
779.22952126017389
 20
1477.7881027154257
 11
784.94685780948702
 21
1485.9600332009688
  0
LINE
  8
_0-1_URIMAT
  6
CONTINUOUS
 62
    7
 10
784.94685780948702
 20
1485.9600332009688
 11
789.15946258389431
 21
1495.0014367911912
  0
LINE
  8
_0-1_URIMAT
  6
CONTINUOUS
 62
    7
 10
789.15946258389431
 20
1495.0014367911912
 11
791.73933771900624
 21
1504.637595013175
  0
LINE
  8
_0-1_URIMAT
  6
CONTINUOUS
 62
    7
 10
791.73933771900624
 20
1504.637595013175
 11
792.60809501432231
 21
1514.5757180754765
  0
LINE
  8
_0-1_URIMAT
  6
CONTINUOUS
 62
    7
 10
792.60809501432231
 20
1514.5757180754765
 11
792.54031153407004
 21
1517.3614807011033
  0
LINE
  8
_0-1_URIMAT
  6
CONTINUOUS
 62
    7
 10
681.34106734997715
 20
1517.7304485358135
 11
681.34106734997715
 21
1517.7304485358135
  0
LINE
  8
_0-1_URIMAT
  6
CONTINUOUS
 62
    7
 10
681.34106734997715
 20
1517.7304485358135
 11
681.6153440221667
 21
1508.2834078377595
  0
LINE
  8
_0-1_URIMAT
  6
CONTINUOUS
 62
    7
 10
681.6153440221667
 20
1508.2834078377595
 11
683.52456467760919
 21
1499.0275558022187
  0
LINE
  8
_0-1_URIMAT
  6
CONTINUOUS
 62
    7
 10
683.52456467760919
 20
1499.0275558022187
 11
687.01071861280138
 21
1490.2441268096038
  0
LINE
  8
_0-1_URIMAT
  6
CONTINUOUS
 62
    7
 10
687.01071861280138
 20
1490.2441268096038
 11
691.9678808045013
 21
1482.2000009052258
  0
LINE
  8
_0-1_URIMAT
  6
CONTINUOUS
 62
    7
 10
691.9678808045013
 20
1482.2000009052258
 11
698.24543038795934
 21
1475.1395947841651
  0
LINE
  8
_0-1_URIMAT
  6
CONTINUOUS
 62
    7
 10
698.24543038795934
 20
1475.1395947841651
 11
705.65262719567544
 21
1469.2774353136724
  0
LINE
  8
_0-1_URIMAT
  6
CONTINUOUS
 62
    7
 10
705.65262719567544
 20
1469.2774353136724
 11
713.96440730086965
 21
1464.7916412428626
  0
LINE
  8
_0-1_URIMAT
  6
CONTINUOUS
 62
    7
 10
713.96440730086965
 20
1464.7916412428626
 11
722.92822147100923
 21
1461.8185111546558
  0
LINE
  8
_0-1_URIMAT
  6
CONTINUOUS
 62
    7
 10
722.92822147100923
 20
1461.8185111546558
 11
732.27170874844341
 21
1460.4483821023063
  0
LINE
  8
_0-1_URIMAT
  6
CONTINUOUS
 62
    7
 10
732.27170874844341
 20
1460.4483821023063
 11
735.42384201997708
 21
1460.3565256817378
  0
LINE
  8
_0-1_URIMAT
  6
CONTINUOUS
 62
    7
 10
735.42384202035259
 20
1460.3565256817378
 11
735.42384202035259
 21
1460.3565256817378
  0
LINE
  8
_0-1_URIMAT
  6
CONTINUOUS
 62
    7
 10
735.42384202035259
 20
1460.3565256817378
 11
744.83115485332189
 21
1461.1802370441098
  0
LINE
  8
_0-1_URIMAT
  6
CONTINUOUS
 62
    7
 10
744.83115485332189
 20
1461.1802370441098
 11
753.95263124618315
 21
1463.6263430782057
  0
LINE
  8
_0-1_URIMAT
  6
CONTINUOUS
 62
    7
 10
753.95263124618315
 20
1463.6263430782057
 11
762.51111975442927
 21
1467.6205200899682
  0
LINE
  8
_0-1_URIMAT
  6
CONTINUOUS
 62
    7
 10
762.51111975442927
 20
1467.6205200899682
 11
770.24657503554112
 21
1473.0414070320468
  0
LINE
  8
_0-1_URIMAT
  6
CONTINUOUS
 62
    7
 10
770.24657503554112
 20
1473.0414070320468
 11
776.9239591951316
 21
1479.7242929978069
  0
LINE
  8
_0-1_URIMAT
  6
CONTINUOUS
 62
    7
 10
776.9239591951316
 20
1479.7242929978069
 11
782.34038329443069
 21
1487.4661218788828
  0
LINE
  8
_0-1_URIMAT
  6
CONTINUOUS
 62
    7
 10
782.34038329443069
 20
1487.4661218788828
 11
786.33127202802427
 21
1496.0316621222771
  0
LINE
  8
_0-1_URIMAT
  6
CONTINUOUS
 62
    7
 10
786.33127202802427
 20
1496.0316621222771
 11
788.77536426122924
 21
1505.1606541220671
  0
LINE
  8
_0-1_URIMAT
  6
CONTINUOUS
 62
    7
 10
788.77536426122924
 20
1505.1606541220671
 11
789.59839748830972
 21
1514.5757180758316
  0
LINE
  8
_0-1_URIMAT
  6
CONTINUOUS
 62
    7
 10
789.59839748830972
 20
1514.5757180758316
 11
789.50630693670632
 21
1517.7357630232636
  0
LINE
  8
_0-1_URIMAT
  6
CONTINUOUS
 62
    7
 10
735.42384201990444
 20
1466.3095241076343
 11
735.42384201990444
 21
1466.3095241076343
  0
LINE
  8
_0-1_URIMAT
  6
CONTINUOUS
 62
    7
 10
735.42384201990444
 20
1466.3095241076343
 11
743.7982785591904
 21
1467.0427960475246
  0
LINE
  8
_0-1_URIMAT
  6
CONTINUOUS
 62
    7
 10
743.7982785591904
 20
1467.0427960475246
 11
751.91826208190502
 21
1469.2203317704177
  0
LINE
  8
_0-1_URIMAT
  6
CONTINUOUS
 62
    7
 10
751.91826208190502
 20
1469.2203317704177
 11
759.53707099762038
 21
1472.7759679552596
  0
LINE
  8
_0-1_URIMAT
  6
CONTINUOUS
 62
    7
 10
759.53707099762038
 20
1472.7759679552596
 11
766.42321165273608
 21
1477.601668395813
  0
LINE
  8
_0-1_URIMAT
  6
CONTINUOUS
 62
    7
 10
766.42321165273608
 20
1477.601668395813
 11
772.36745214800157
 21
1483.5508066261138
  0
LINE
  8
_0-1_URIMAT
  6
CONTINUOUS
 62
    7
 10
772.36745214800157
 20
1483.5508066261138
 11
777.18917974389898
 21
1490.4426210914432
  0
LINE
  8
_0-1_URIMAT
  6
CONTINUOUS
 62
    7
 10
777.18917974389898
 20
1490.4426210914432
 11
780.74188868733892
 21
1498.067707496699
  0
LINE
  8
_0-1_URIMAT
  6
CONTINUOUS
 62
    7
 10
780.74188868733892
 20
1498.067707496699
 11
782.9176317148325
 21
1506.1943814499372
  0
LINE
  8
_0-1_URIMAT
  6
CONTINUOUS
 62
    7
 10
782.9176317148325
 20
1506.1943814499372
 11
783.65029997546832
 21
1514.5757180753839
  0
LINE
  8
_0-1_URIMAT
  6
CONTINUOUS
 62
    7
 10
783.65029997546832
 20
1514.5757180753839
 11
783.49751961964091
 21
1518.414601250178
  0
LINE
  8
_0-1_URIMAT
  6
CONTINUOUS
 62
    7
 10
687.35016442053051
 20
1518.4146012502069
 11
687.35016442053051
 21
1518.4146012502069
  0
LINE
  8
_0-1_URIMAT
  6
CONTINUOUS
 62
    7
 10
687.35016442053051
 20
1518.4146012502069
 11
687.41444533952903
 21
1510.001495253105
  0
LINE
  8
_0-1_URIMAT
  6
CONTINUOUS
 62
    7
 10
687.41444533952903
 20
1510.001495253105
 11
688.93746748273929
 21
1501.727374701795
  0
LINE
  8
_0-1_URIMAT
  6
CONTINUOUS
 62
    7
 10
688.93746748273929
 20
1501.727374701795
 11
691.87295459302617
 21
1493.8436445623215
  0
LINE
  8
_0-1_URIMAT
  6
CONTINUOUS
 62
    7
 10
691.87295459302617
 20
1493.8436445623215
 11
696.13171337997187
 21
1486.5898479856125
  0
LINE
  8
_0-1_URIMAT
  6
CONTINUOUS
 62
    7
 10
696.13171337997187
 20
1486.5898479856125
 11
701.58434361287095
 21
1480.186387910053
  0
LINE
  8
_0-1_URIMAT
  6
CONTINUOUS
 62
    7
 10
701.58434361287095
 20
1480.186387910053
 11
708.06516988126077
 21
1474.8278302297319
  0
LINE
  8
_0-1_URIMAT
  6
CONTINUOUS
 62
    7
 10
708.06516988126077
 20
1474.8278302297319
 11
715.37727555843275
 21
1470.6769920082047
  0
LINE
  8
_0-1_URIMAT
  6
CONTINUOUS
 62
    7
 10
715.37727555843275
 20
1470.6769920082047
 11
723.29848601348987
 21
1467.8599943644071
  0
LINE
  8
_0-1_URIMAT
  6
CONTINUOUS
 62
    7
 10
723.29848601348987
 20
1467.8599943644071
 11
731.58811927508122
 21
1466.462430346276
  0
LINE
  8
_0-1_URIMAT
  6
CONTINUOUS
 62
    7
 10
731.58811927508122
 20
1466.462430346276
 11
735.42384202023595
 21
1466.3095241076343
  0
LINE
  8
_0-1_URIMAT
  6
CONTINUOUS
 62
    7
 10
697.60585317797699
 20
1519.3911576621935
 11
697.60585317797699
 21
1519.3911576621935
  0
LINE
  8
_0-1_URIMAT
  6
CONTINUOUS
 62
    7
 10
697.60585317797699
 20
1519.3911576621935
 11
697.34488950652678
 21
1512.7455645932252
  0
LINE
  8
_0-1_URIMAT
  6
CONTINUOUS
 62
    7
 10
697.34488950652678
 20
1512.7455645932252
 11
698.2409355383213
 21
1506.1555798117158
  0
LINE
  8
_0-1_URIMAT
  6
CONTINUOUS
 62
    7
 10
698.2409355383213
 20
1506.1555798117158
 11
700.26676536810577
 21
1499.8214366705576
  0
LINE
  8
_0-1_URIMAT
  6
CONTINUOUS
 62
    7
 10
700.26676536810577
 20
1499.8214366705576
 11
703.36082518162129
 21
1493.935594903864
  0
LINE
  8
_0-1_URIMAT
  6
CONTINUOUS
 62
    7
 10
703.36082518162129
 20
1493.935594903864
 11
707.42910353710419
 21
1488.6768928353362
  0
LINE
  8
_0-1_URIMAT
  6
CONTINUOUS
 62
    7
 10
707.42910353710419
 20
1488.6768928353362
 11
712.34798785537122
 21
1484.2051134662947
  0
LINE
  8
_0-1_URIMAT
  6
CONTINUOUS
 62
    7
 10
712.34798785537122
 20
1484.2051134662947
 11
717.96802032548748
 21
1480.6561295500387
  0
LINE
  8
_0-1_URIMAT
  6
CONTINUOUS
 62
    7
 10
717.96802032548748
 20
1480.6561295500387
 11
724.11843910472202
 21
1478.1377751669904
  0
LINE
  8
_0-1_URIMAT
  6
CONTINUOUS
 62
    7
 10
724.11843910472202
 20
1478.1377751669904
 11
730.61236683073002
 21
1476.7265692407306
  0
LINE
  8
_0-1_URIMAT
  6
CONTINUOUS
 62
    7
 10
730.61236683073002
 20
1476.7265692407306
 11
737.25248879564264
 21
1476.4653905492236
  0
LINE
  8
_0-1_URIMAT
  6
CONTINUOUS
 62
    7
 10
737.25248879564264
 20
1476.4653905492236
 11
743.83704825361985
 21
1477.3621748748485
  0
LINE
  8
_0-1_URIMAT
  6
CONTINUOUS
 62
    7
 10
743.83704825361985
 20
1477.3621748748485
 11
750.16597669747886
 21
1479.3896738796654
  0
LINE
  8
_0-1_URIMAT
  6
CONTINUOUS
 62
    7
 10
750.16597669747886
 20
1479.3896738796654
 11
756.04697283904533
 21
1482.4862830323772
  0
LINE
  8
_0-1_URIMAT
  6
CONTINUOUS
 62
    7
 10
756.04697283904533
 20
1482.4862830323772
 11
761.30134558648535
 21
1486.5579134308388
  0
LINE
  8
_0-1_URIMAT
  6
CONTINUOUS
 62
    7
 10
761.30134558648535
 20
1486.5579134308388
 11
765.76944348270899
 21
1491.480850645737
  0
LINE
  8
_0-1_URIMAT
  6
CONTINUOUS
 62
    7
 10
765.76944348270899
 20
1491.480850645737
 11
769.31550563410598
 21
1497.1055137209236
  0
LINE
  8
_0-1_URIMAT
  6
CONTINUOUS
 62
    7
 10
769.31550563410598
 20
1497.1055137209236
 11
771.83178673660029
 21
1503.2610001150762
  0
LINE
  8
_0-1_URIMAT
  6
CONTINUOUS
 62
    7
 10
771.83178673660029
 20
1503.2610001150762
 11
773.24183086219227
 21
1509.7602784889345
  0
LINE
  8
_0-1_URIMAT
  6
CONTINUOUS
 62
    7
 10
773.24183086219227
 20
1509.7602784889345
 11
773.50279453364248
 21
1516.4058715579026
  0
LINE
  8
_0-1_URIMAT
  6
CONTINUOUS
 62
    7
 10
773.50279453364248
 20
1516.4058715579026
 11
773.24183090359827
 21
1519.3911573364753
  0
LINE
  8
_0-1_URIMAT
  6
CONTINUOUS
 62
    7
 10
678.30737250610047
 20
1517.3614807011308
 11
678.30737250610047
 21
1517.3614807011308
  0
LINE
  8
_0-1_URIMAT
  6
CONTINUOUS
 62
    7
 10
678.30737250610047
 20
1517.3614807011308
 11
678.69175566448666
 21
1507.3928158210346
  0
LINE
  8
_0-1_URIMAT
  6
CONTINUOUS
 62
    7
 10
678.69175566448666
 20
1507.3928158210346
 11
680.79991455896674
 21
1497.6423997912186
  0
LINE
  8
_0-1_URIMAT
  6
CONTINUOUS
 62
    7
 10
680.79991455896674
 20
1497.6423997912186
 11
684.5677938483119
 21
1488.4064940687999
  0
LINE
  8
_0-1_URIMAT
  6
CONTINUOUS
 62
    7
 10
684.5677938483119
 20
1488.4064940687999
 11
689.88090842695419
 21
1479.9657269755605
  0
LINE
  8
_0-1_URIMAT
  6
CONTINUOUS
 62
    7
 10
689.88090842695419
 20
1479.9657269755605
 11
696.57782199698749
 21
1472.5765669483939
  0
LINE
  8
_0-1_URIMAT
  6
CONTINUOUS
 62
    7
 10
696.57782199698749
 20
1472.5765669483939
 11
704.45505222838801
 21
1466.4635298756306
  0
LINE
  8
_0-1_URIMAT
  6
CONTINUOUS
 62
    7
 10
704.45505222838801
 20
1466.4635298756306
 11
713.27325346664542
 21
1461.8123572953804
  0
LINE
  8
_0-1_URIMAT
  6
CONTINUOUS
 62
    7
 10
713.27325346664542
 20
1461.8123572953804
 11
722.76448912936041
 21
1458.7643727328872
  0
LINE
  8
_0-1_URIMAT
  6
CONTINUOUS
 62
    7
 10
722.76448912936041
 20
1458.7643727328872
 11
732.6403728237185
 21
1457.4121876567278
  0
LINE
  8
_0-1_URIMAT
  6
CONTINUOUS
 62
    7
 10
732.6403728237185
 20
1457.4121876567278
 11
735.42384202014488
 21
1457.344348326525
  0
LINE
  8
_0-1_URIMAT
  6
CONTINUOUS
 62
    7
 10
744.61020545965106
 20
1523.593938149816
 11
756.53091878701707
 21
1523.3081365101706
  0
LINE
  8
_0-1_URIMAT
  6
CONTINUOUS
 62
    7
 10
756.53091878701707
 20
1523.3081365101706
 11
768.37829141572137
 21
1522.6390616095195
  0
LINE
  8
_0-1_URIMAT
  6
CONTINUOUS
 62
    7
 10
768.37829141572137
 20
1522.6390616095195
 11
780.16414437055118
 21
1521.6479336503748
  0
LINE
  8
_0-1_URIMAT
  6
CONTINUOUS
 62
    7
 10
780.16414437055118
 20
1521.6479336503748
 11
791.89329652903211
 21
1520.3585313530925
  0
LINE
  8
_0-1_URIMAT
  6
CONTINUOUS
 62
    7
 10
791.89329652903211
 20
1520.3585313530925
 11
803.56753676672383
 21
1518.7783679661299
  0
LINE
  8
_0-1_URIMAT
  6
CONTINUOUS
 62
    7
 10
803.56753676672383
 20
1518.7783679661299
 11
815.18756377330464
 21
1516.908602957751
  0
LINE
  8
_0-1_URIMAT
  6
CONTINUOUS
 62
    7
 10
815.18756377330464
 20
1516.908602957751
 11
826.75307744133579
 21
1514.7450266071166
  0
LINE
  8
_0-1_URIMAT
  6
CONTINUOUS
 62
    7
 10
826.75307744133579
 20
1514.7450266071166
 11
838.26087108320587
 21
1512.267886522301
  0
LINE
  8
_0-1_URIMAT
  6
CONTINUOUS
 62
    7
 10
735.42384202000391
 20
1523.593908983687
 11
744.61020545965106
 21
1523.593938149816
  0
LINE
  8
_0-1_URIMAT
  6
CONTINUOUS
 62
    7
 10
735.42384202006383
 20
1635.0628122840669
 11
740.40126966659352
 21
1635.0628122840669
  0
LINE
  8
_0-1_URIMAT
  6
CONTINUOUS
 62
    7
 10
740.40126966659352
 20
1635.0628122840669
 11
768.81601358126079
 21
1635.0628122840669
  0
LINE
  8
_0-1_URIMAT
  6
CONTINUOUS
 62
    7
 10
768.81613037640818
 20
1635.0628122840669
 11
802.19370978174526
 21
1635.0628122840669
  0
LINE
  8
_0-1_URIMAT
  6
CONTINUOUS
 62
    7
 10
802.19370978174526
 20
1635.0628122840669
 11
835.5570463144287
 21
1635.0628122840669
  0
LINE
  8
_0-1_URIMAT
  6
CONTINUOUS
 62
    7
 10
835.5570463144287
 20
1635.0628122840669
 11
835.55749069458408
 21
1635.0628122840669
  0
LINE
  8
_0-1_URIMAT
  6
CONTINUOUS
 62
    7
 10
835.55749069458238
 20
1635.0628122840669
 11
852.23356532088962
 21
1635.0628122840669
  0
LINE
  8
_0-1_URIMAT
  6
CONTINUOUS
 62
    7
 10
852.23376846160556
 20
1635.0628122840669
 11
868.90657134572143
 21
1635.0628122840669
  0
LINE
  8
_0-1_URIMAT
  6
CONTINUOUS
 62
    7
 10
838.26087108282013
 20
1512.26788652108
 11
847.29338655959202
 21
1541.8667067816143
  0
LINE
  8
_0-1_URIMAT
  6
CONTINUOUS
 62
    7
 10
847.29338655959202
 20
1541.8667067816143
 11
851.53302428471283
 21
1556.7509691301013
  0
LINE
  8
_0-1_URIMAT
  6
CONTINUOUS
 62
    7
 10
851.53302428471283
 20
1556.7509691301013
 11
855.56585670702338
 21
1571.6889455609418
  0
LINE
  8
_0-1_URIMAT
  6
CONTINUOUS
 62
    7
 10
855.56585670702338
 20
1571.6889455609418
 11
859.37552484969739
 21
1586.6805935633208
  0
LINE
  8
_0-1_URIMAT
  6
CONTINUOUS
 62
    7
 10
859.37552484969739
 20
1586.6805935633208
 11
862.90968969038112
 21
1601.7307417861989
  0
LINE
  8
_0-1_URIMAT
  6
CONTINUOUS
 62
    7
 10
862.90968969038112
 20
1601.7307417861989
 11
866.03582605741155
 21
1616.8545028929818
  0
LINE
  8
_0-1_URIMAT
  6
CONTINUOUS
 62
    7
 10
866.03582605741155
 20
1616.8545028929818
 11
868.51504994759363
 21
1632.074854505475
  0
LINE
  8
_0-1_URIMAT
  6
CONTINUOUS
 62
    7
 10
601.94111269440611
 20
1635.0628122840669
 11
618.61391557852186
 21
1635.0628122840669
  0
LINE
  8
_0-1_URIMAT
  6
CONTINUOUS
 62
    7
 10
618.61411871923758
 20
1635.0628122840669
 11
635.29019334554516
 21
1635.0628122840669
  0
LINE
  8
_0-1_URIMAT
  6
CONTINUOUS
 62
    7
 10
635.29019334554516
 20
1635.0628122840669
 11
635.29063772569645
 21
1635.0628122840669
  0
LINE
  8
_0-1_URIMAT
  6
CONTINUOUS
 62
    7
 10
635.2906377256985
 20
1635.0628122840669
 11
668.6539742583817
 21
1635.0628122840669
  0
LINE
  8
_0-1_URIMAT
  6
CONTINUOUS
 62
    7
 10
668.6539742583817
 20
1635.0628122840669
 11
702.03155366371845
 21
1635.0628122840669
  0
LINE
  8
_0-1_URIMAT
  6
CONTINUOUS
 62
    7
 10
702.03167045886584
 20
1635.0628122840669
 11
730.44641437353334
 21
1635.0628122840669
  0
LINE
  8
_0-1_URIMAT
  6
CONTINUOUS
 62
    7
 10
730.44641437353334
 20
1635.0628122840669
 11
735.42384202006383
 21
1635.0628122840669
  0
LINE
  8
_0-1_URIMAT
  6
CONTINUOUS
 62
    7
 10
735.42384202012738
 20
1523.593908983687
 11
726.23747858048079
 21
1523.593938149816
  0
LINE
  8
_0-1_URIMAT
  6
CONTINUOUS
 62
    7
 10
632.58681295692622
 20
1512.267886522301
 11
644.09460659879619
 21
1514.7450266071166
  0
LINE
  8
_0-1_URIMAT
  6
CONTINUOUS
 62
    7
 10
644.09460659879619
 20
1514.7450266071166
 11
655.66012026682756
 21
1516.908602957751
  0
LINE
  8
_0-1_URIMAT
  6
CONTINUOUS
 62
    7
 10
655.66012026682756
 20
1516.908602957751
 11
667.2801472734078
 21
1518.7783679661299
  0
LINE
  8
_0-1_URIMAT
  6
CONTINUOUS
 62
    7
 10
667.2801472734078
 20
1518.7783679661299
 11
678.95438751109941
 21
1520.3585313530925
  0
LINE
  8
_0-1_URIMAT
  6
CONTINUOUS
 62
    7
 10
678.95438751109941
 20
1520.3585313530925
 11
690.68353966958056
 21
1521.6479336503748
  0
LINE
  8
_0-1_URIMAT
  6
CONTINUOUS
 62
    7
 10
690.68353966958056
 20
1521.6479336503748
 11
702.46939262441003
 21
1522.6390616095195
  0
LINE
  8
_0-1_URIMAT
  6
CONTINUOUS
 62
    7
 10
702.46939262441003
 20
1522.6390616095195
 11
714.31676525311434
 21
1523.3081365101706
  0
LINE
  8
_0-1_URIMAT
  6
CONTINUOUS
 62
    7
 10
714.31676525311434
 20
1523.3081365101706
 11
726.23747858048079
 21
1523.593938149816
  0
LINE
  8
_0-1_URIMAT
  6
CONTINUOUS
 62
    7
 10
602.33263409264293
 20
1632.0748545046869
 11
604.81185798284434
 21
1616.8545028922985
  0
LINE
  8
_0-1_URIMAT
  6
CONTINUOUS
 62
    7
 10
604.81185798284434
 20
1616.8545028922985
 11
607.93799434987704
 21
1601.7307417856163
  0
LINE
  8
_0-1_URIMAT
  6
CONTINUOUS
 62
    7
 10
607.93799434987704
 20
1601.7307417856163
 11
611.47215919055054
 21
1586.6805935628372
  0
LINE
  8
_0-1_URIMAT
  6
CONTINUOUS
 62
    7
 10
611.47215919055054
 20
1586.6805935628372
 11
615.28182733320727
 21
1571.6889455605564
  0
LINE
  8
_0-1_URIMAT
  6
CONTINUOUS
 62
    7
 10
615.28182733320727
 20
1571.6889455605564
 11
619.31465975549713
 21
1556.7509691298134
  0
LINE
  8
_0-1_URIMAT
  6
CONTINUOUS
 62
    7
 10
619.31465975549713
 20
1556.7509691298134
 11
623.55429748059452
 21
1541.8667067814233
  0
LINE
  8
_0-1_URIMAT
  6
CONTINUOUS
 62
    7
 10
623.55429748059452
 20
1541.8667067814233
 11
632.58681295731196
 21
1512.26788652108
  0
LINE
  8
_0-1_URIMAT
  6
CONTINUOUS
 62
    7
 10
892.11679165527311
 20
1632.0505229366829
 11
891.81263476286403
 21
1617.059986280567
  0
LINE
  8
_0-1_URIMAT
  6
CONTINUOUS
 62
    7
 10
891.81263476286403
 20
1617.059986280567
 11
890.97298340189263
 21
1601.9909070963042
  0
LINE
  8
_0-1_URIMAT
  6
CONTINUOUS
 62
    7
 10
890.97298340189263
 20
1601.9909070963042
 11
889.79157087141095
 21
1586.882126547252
  0
LINE
  8
_0-1_URIMAT
  6
CONTINUOUS
 62
    7
 10
889.79157087141095
 20
1586.882126547252
 11
888.36351039218061
 21
1571.7601745636782
  0
LINE
  8
_0-1_URIMAT
  6
CONTINUOUS
 62
    7
 10
888.36351039218061
 20
1571.7601745636782
 11
884.89676281536401
 21
1541.5309111008571
  0
LINE
  8
_0-1_URIMAT
  6
CONTINUOUS
 62
    7
 10
884.89676281536401
 20
1541.5309111008571
 11
880.66794441598244
 21
1511.4112481558959
  0
LINE
  8
_0-1_URIMAT
  6
CONTINUOUS
 62
    7
 10
838.26104041934956
 20
1512.2678507620059
 11
845.69470790952379
 21
1510.7077090385525
  0
LINE
  8
_0-1_URIMAT
  6
CONTINUOUS
 62
    7
 10
845.69470790952379
 20
1510.7077090385525
 11
852.77543880201551
 21
1509.5410033058685
  0
LINE
  8
_0-1_URIMAT
  6
CONTINUOUS
 62
    7
 10
852.77543880201551
 20
1509.5410033058685
 11
859.30963540333459
 21
1508.8019067293175
  0
LINE
  8
_0-1_URIMAT
  6
CONTINUOUS
 62
    7
 10
859.30963540333459
 20
1508.8019067293175
 11
865.19655456582074
 21
1508.4894394872897
  0
LINE
  8
_0-1_URIMAT
  6
CONTINUOUS
 62
    7
 10
865.19655456582074
 20
1508.4894394872897
 11
867.84827788876168
 21
1508.4862547981329
  0
LINE
  8
_0-1_URIMAT
  6
CONTINUOUS
 62
    7
 10
867.84827788876168
 20
1508.4862547981329
 11
870.29242270051793
 21
1508.5806521289523
  0
LINE
  8
_0-1_URIMAT
  6
CONTINUOUS
 62
    7
 10
870.29242270051793
 20
1508.5806521289523
 11
872.54568425696356
 21
1508.7962784238222
  0
LINE
  8
_0-1_URIMAT
  6
CONTINUOUS
 62
    7
 10
872.54568425696356
 20
1508.7962784238222
 11
874.60625481423187
 21
1509.1173143781031
  0
LINE
  8
_0-1_URIMAT
  6
CONTINUOUS
 62
    7
 10
874.60625481423187
 20
1509.1173143781031
 11
876.44704011056296
 21
1509.5353860017623
  0
LINE
  8
_0-1_URIMAT
  6
CONTINUOUS
 62
    7
 10
876.44704011056296
 20
1509.5353860017623
 11
878.06726694436838
 21
1510.0522171004481
  0
LINE
  8
_0-1_URIMAT
  6
CONTINUOUS
 62
    7
 10
878.06726694436838
 20
1510.0522171004481
 11
879.47453913135166
 21
1510.6779880613926
  0
LINE
  8
_0-1_URIMAT
  6
CONTINUOUS
 62
    7
 10
879.47453913135166
 20
1510.6779880613926
 11
880.66794316652158
 21
1511.4112460983899
  0
LINE
  8
_0-1_URIMAT
  6
CONTINUOUS
 62
    7
 10
892.08581185756167
 20
1635.0628122840669
 11
890.88933474281213
 21
1635.0628122397365
  0
LINE
  8
_0-1_URIMAT
  6
CONTINUOUS
 62
    7
 10
890.88933474281213
 20
1635.0628122397365
 11
889.22406152051905
 21
1635.0628125137843
  0
LINE
  8
_0-1_URIMAT
  6
CONTINUOUS
 62
    7
 10
889.22406152051905
 20
1635.0628125137843
 11
887.06141588452157
 21
1635.0628125598921
  0
LINE
  8
_0-1_URIMAT
  6
CONTINUOUS
 62
    7
 10
887.06141588452157
 20
1635.0628125598921
 11
884.37749983184312
 21
1635.0628116116963
  0
LINE
  8
_0-1_URIMAT
  6
CONTINUOUS
 62
    7
 10
884.37749983184312
 20
1635.0628116116963
 11
881.16377870764063
 21
1635.0628097494975
  0
LINE
  8
_0-1_URIMAT
  6
CONTINUOUS
 62
    7
 10
881.16377870764063
 20
1635.0628097494975
 11
877.4457719479642
 21
1635.0628125050873
  0
LINE
  8
_0-1_URIMAT
  6
CONTINUOUS
 62
    7
 10
877.4457719479642
 20
1635.0628125050873
 11
873.30761750292981
 21
1635.062812282453
  0
LINE
  8
_0-1_URIMAT
  6
CONTINUOUS
 62
    7
 10
873.30761750292981
 20
1635.062812282453
 11
868.90657133869785
 21
1635.0628122840669
  0
LINE
  8
_0-1_URIMAT
  6
CONTINUOUS
 62
    7
 10
590.17973962415237
 20
1511.4112481558959
 11
585.95092122481594
 21
1541.5309111004892
  0
LINE
  8
_0-1_URIMAT
  6
CONTINUOUS
 62
    7
 10
585.95092122481594
 20
1541.5309111004892
 11
582.48417364802594
 21
1571.7601745629413
  0
LINE
  8
_0-1_URIMAT
  6
CONTINUOUS
 62
    7
 10
582.48417364802594
 20
1571.7601745629413
 11
581.05611316880026
 21
1586.8821265463307
  0
LINE
  8
_0-1_URIMAT
  6
CONTINUOUS
 62
    7
 10
581.05611316880026
 20
1586.8821265463307
 11
579.8747006383129
 21
1601.9909070952007
  0
LINE
  8
_0-1_URIMAT
  6
CONTINUOUS
 62
    7
 10
579.8747006383129
 20
1601.9909070952007
 11
579.03504927731762
 21
1617.0599862792844
  0
LINE
  8
_0-1_URIMAT
  6
CONTINUOUS
 62
    7
 10
579.03504927731762
 20
1617.0599862792844
 11
578.7308923848501
 21
1632.0505229352249
  0
LINE
  8
_0-1_URIMAT
  6
CONTINUOUS
 62
    7
 10
590.17974087361255
 20
1511.4112460983899
 11
591.37314490878247
 21
1510.6779880613928
  0
LINE
  8
_0-1_URIMAT
  6
CONTINUOUS
 62
    7
 10
591.37314490878247
 20
1510.6779880613928
 11
592.78041709576496
 21
1510.0522171004483
  0
LINE
  8
_0-1_URIMAT
  6
CONTINUOUS
 62
    7
 10
592.78041709576496
 20
1510.0522171004483
 11
594.40064392956992
 21
1509.5353860017626
  0
LINE
  8
_0-1_URIMAT
  6
CONTINUOUS
 62
    7
 10
594.40064392956992
 20
1509.5353860017626
 11
596.2414292259001
 21
1509.1173143781036
  0
LINE
  8
_0-1_URIMAT
  6
CONTINUOUS
 62
    7
 10
596.2414292259001
 20
1509.1173143781036
 11
598.30199978316784
 21
1508.7962784238216
  0
LINE
  8
_0-1_URIMAT
  6
CONTINUOUS
 62
    7
 10
598.30199978316784
 20
1508.7962784238216
 11
600.55526133961211
 21
1508.5806521289523
  0
LINE
  8
_0-1_URIMAT
  6
CONTINUOUS
 62
    7
 10
600.55526133961211
 20
1508.5806521289523
 11
602.99940615136802
 21
1508.4862547981331
  0
LINE
  8
_0-1_URIMAT
  6
CONTINUOUS
 62
    7
 10
602.99940615136802
 20
1508.4862547981331
 11
605.65112947430816
 21
1508.4894394872897
  0
LINE
  8
_0-1_URIMAT
  6
CONTINUOUS
 62
    7
 10
605.65112947430816
 20
1508.4894394872897
 11
611.53804863679499
 21
1508.8019067293173
  0
LINE
  8
_0-1_URIMAT
  6
CONTINUOUS
 62
    7
 10
611.53804863679499
 20
1508.8019067293173
 11
618.07224523811453
 21
1509.5410033058681
  0
LINE
  8
_0-1_URIMAT
  6
CONTINUOUS
 62
    7
 10
618.07224523811453
 20
1509.5410033058681
 11
625.15297613060715
 21
1510.7077090385523
  0
LINE
  8
_0-1_URIMAT
  6
CONTINUOUS
 62
    7
 10
625.15297613060715
 20
1510.7077090385523
 11
632.58664362078241
 21
1512.2678507620059
  0
LINE
  8
_0-1_URIMAT
  6
CONTINUOUS
 62
    7
 10
601.94111270142946
 20
1635.0628122840669
 11
597.54006653719773
 21
1635.0628122824532
  0
LINE
  8
_0-1_URIMAT
  6
CONTINUOUS
 62
    7
 10
597.54006653719773
 20
1635.0628122824532
 11
593.40191209216345
 21
1635.062812505087
  0
LINE
  8
_0-1_URIMAT
  6
CONTINUOUS
 62
    7
 10
593.40191209216345
 20
1635.062812505087
 11
589.68390533248725
 21
1635.0628097494973
  0
LINE
  8
_0-1_URIMAT
  6
CONTINUOUS
 62
    7
 10
589.68390533248725
 20
1635.0628097494973
 11
586.47018420828453
 21
1635.0628116116959
  0
LINE
  8
_0-1_URIMAT
  6
CONTINUOUS
 62
    7
 10
586.47018420828453
 20
1635.0628116116959
 11
583.78626815560596
 21
1635.0628125598923
  0
LINE
  8
_0-1_URIMAT
  6
CONTINUOUS
 62
    7
 10
583.78626815560596
 20
1635.0628125598923
 11
581.62362251960882
 21
1635.0628125137839
  0
LINE
  8
_0-1_URIMAT
  6
CONTINUOUS
 62
    7
 10
581.62362251960882
 20
1635.0628125137839
 11
579.95834929731631
 21
1635.062812239737
  0
LINE
  8
_0-1_URIMAT
  6
CONTINUOUS
 62
    7
 10
579.95834929731631
 20
1635.062812239737
 11
578.76187218256666
 21
1635.0628122840669
  0
LINE
  8
_0-1_URIMAT
  6
CONTINUOUS
 62
    7
 10
888.09382856120498
 20
1454.4736489968909
 11
887.13636583623667
 21
1451.965732253878
  0
LINE
  8
_0-1_URIMAT
  6
CONTINUOUS
 62
    7
 10
896.24079876330722
 20
1512.2933371604081
 11
897.18188519366083
 21
1510.8355194801279
  0
LINE
  8
_0-1_URIMAT
  6
CONTINUOUS
 62
    7
 10
897.18188519366083
 20
1510.8355194801279
 11
897.91777965454309
 21
1508.9681099674642
  0
LINE
  8
_0-1_URIMAT
  6
CONTINUOUS
 62
    7
 10
897.91777965454309
 20
1508.9681099674642
 11
898.43885838940298
 21
1506.6739676383963
  0
LINE
  8
_0-1_URIMAT
  6
CONTINUOUS
 62
    7
 10
898.43885838940298
 20
1506.6739676383963
 11
898.74592238113336
 21
1503.971769498426
  0
LINE
  8
_0-1_URIMAT
  6
CONTINUOUS
 62
    7
 10
898.74592238113336
 20
1503.971769498426
 11
898.8487464918802
 21
1500.9135165738159
  0
LINE
  8
_0-1_URIMAT
  6
CONTINUOUS
 62
    7
 10
898.8487464918802
 20
1500.9135165738159
 11
898.760521356617
 21
1497.5681442859856
  0
LINE
  8
_0-1_URIMAT
  6
CONTINUOUS
 62
    7
 10
898.760521356617
 20
1497.5681442859856
 11
898.48733094462613
 21
1494.007991411355
  0
LINE
  8
_0-1_URIMAT
  6
CONTINUOUS
 62
    7
 10
898.48733094462613
 20
1494.007991411355
 11
898.0256514556911
 21
1490.2525747722936
  0
LINE
  8
_0-1_URIMAT
  6
CONTINUOUS
 62
    7
 10
898.0256514556911
 20
1490.2525747722936
 11
897.37778040148134
 21
1486.3153724101284
  0
LINE
  8
_0-1_URIMAT
  6
CONTINUOUS
 62
    7
 10
897.37778040148134
 20
1486.3153724101284
 11
896.55386155541066
 21
1482.2176810206337
  0
LINE
  8
_0-1_URIMAT
  6
CONTINUOUS
 62
    7
 10
896.55386155541066
 20
1482.2176810206337
 11
895.5660808375286
 21
1477.9855431425837
  0
LINE
  8
_0-1_URIMAT
  6
CONTINUOUS
 62
    7
 10
895.5660808375286
 20
1477.9855431425837
 11
894.41911234240387
 21
1473.6254836802775
  0
LINE
  8
_0-1_URIMAT
  6
CONTINUOUS
 62
    7
 10
894.41911234240387
 20
1473.6254836802775
 11
893.10868981997168
 21
1469.1216371581106
  0
LINE
  8
_0-1_URIMAT
  6
CONTINUOUS
 62
    7
 10
893.10868981997168
 20
1469.1216371581106
 11
891.62581738815549
 21
1464.4481069367591
  0
LINE
  8
_0-1_URIMAT
  6
CONTINUOUS
 62
    7
 10
891.62581738815549
 20
1464.4481069367591
 11
889.95944397902576
 21
1459.5775737929484
  0
LINE
  8
_0-1_URIMAT
  6
CONTINUOUS
 62
    7
 10
889.95944397902576
 20
1459.5775737929484
 11
888.09382862712516
 21
1454.4736491719149
  0
LINE
  8
_0-1_URIMAT
  6
CONTINUOUS
 62
    7
 10
880.66794424704107
 20
1511.411247059387
 11
883.20367141284145
 21
1512.7712570809164
  0
LINE
  8
_0-1_URIMAT
  6
CONTINUOUS
 62
    7
 10
883.20367141284145
 20
1512.7712570809164
 11
885.61526340711031
 21
1513.9045358196754
  0
LINE
  8
_0-1_URIMAT
  6
CONTINUOUS
 62
    7
 10
885.61526340711031
 20
1513.9045358196754
 11
887.86601275119096
 21
1514.7047163873476
  0
LINE
  8
_0-1_URIMAT
  6
CONTINUOUS
 62
    7
 10
887.86601275119096
 20
1514.7047163873476
 11
889.93095583286617
 21
1515.0940174074471
  0
LINE
  8
_0-1_URIMAT
  6
CONTINUOUS
 62
    7
 10
889.93095583286617
 20
1515.0940174074471
 11
891.79907545060655
 21
1515.036266951954
  0
LINE
  8
_0-1_URIMAT
  6
CONTINUOUS
 62
    7
 10
891.79907545060655
 20
1515.036266951954
 11
893.46478881264317
 21
1514.5139882673111
  0
LINE
  8
_0-1_URIMAT
  6
CONTINUOUS
 62
    7
 10
893.46478881264317
 20
1514.5139882673111
 11
894.94150317414846
 21
1513.581097821336
  0
LINE
  8
_0-1_URIMAT
  6
CONTINUOUS
 62
    7
 10
894.94150317414846
 20
1513.581097821336
 11
896.24079876330722
 21
1512.2933371604081
  0
LINE
  8
_0-1_URIMAT
  6
CONTINUOUS
 62
    7
 10
892.08581188641539
 20
1635.0628122840669
 11
896.07649133929407
 21
1635.0628122840671
  0
LINE
  8
_0-1_URIMAT
  6
CONTINUOUS
 62
    7
 10
896.07649133929407
 20
1635.0628122840671
 11
899.8510161177835
 21
1635.0628122840669
  0
LINE
  8
_0-1_URIMAT
  6
CONTINUOUS
 62
    7
 10
899.8510161177835
 20
1635.0628122840669
 11
903.43386293207038
 21
1635.0628122840669
  0
LINE
  8
_0-1_URIMAT
  6
CONTINUOUS
 62
    7
 10
903.43386293207038
 20
1635.0628122840669
 11
906.80653274546989
 21
1635.0628122840666
  0
LINE
  8
_0-1_URIMAT
  6
CONTINUOUS
 62
    7
 10
906.80653274546989
 20
1635.0628122840666
 11
909.85635791264826
 21
1635.0628122840669
  0
LINE
  8
_0-1_URIMAT
  6
CONTINUOUS
 62
    7
 10
909.85635791264826
 20
1635.0628122840669
 11
912.70123799706266
 21
1635.0628122840666
  0
LINE
  8
_0-1_URIMAT
  6
CONTINUOUS
 62
    7
 10
912.70123799706266
 20
1635.0628122840666
 11
915.26310347132834
 21
1635.0628122840669
  0
LINE
  8
_0-1_URIMAT
  6
CONTINUOUS
 62
    7
 10
915.26310347132834
 20
1635.0628122840669
 11
917.53885195159932
 21
1635.0628122840666
  0
LINE
  8
_0-1_URIMAT
  6
CONTINUOUS
 62
    7
 10
917.53885195159932
 20
1635.0628122840666
 11
919.54512153104008
 21
1635.0628122840666
  0
LINE
  8
_0-1_URIMAT
  6
CONTINUOUS
 62
    7
 10
919.54512153104008
 20
1635.0628122840666
 11
921.27421289434346
 21
1635.0628122840671
  0
LINE
  8
_0-1_URIMAT
  6
CONTINUOUS
 62
    7
 10
921.27421289434346
 20
1635.0628122840671
 11
922.71372681989021
 21
1635.0628122840669
  0
LINE
  8
_0-1_URIMAT
  6
CONTINUOUS
 62
    7
 10
922.71372681989021
 20
1635.0628122840669
 11
923.88764319246581
 21
1635.0628122840669
  0
LINE
  8
_0-1_URIMAT
  6
CONTINUOUS
 62
    7
 10
923.88764319246581
 20
1635.0628122840669
 11
924.80015459041214
 21
1635.0628122840669
  0
LINE
  8
_0-1_URIMAT
  6
CONTINUOUS
 62
    7
 10
924.80015459041214
 20
1635.0628122840669
 11
925.45126101372886
 21
1635.0628122840671
  0
LINE
  8
_0-1_URIMAT
  6
CONTINUOUS
 62
    7
 10
925.45126101372886
 20
1635.0628122840671
 11
925.8409624624162
 21
1635.0628122840666
  0
LINE
  8
_0-1_URIMAT
  6
CONTINUOUS
 62
    7
 10
925.8409624624162
 20
1635.0628122840666
 11
925.97030889471125
 21
1635.0628122840669
  0
LINE
  8
_0-1_URIMAT
  6
CONTINUOUS
 62
    7
 10
574.60688527683157
 20
1512.2933371604081
 11
575.90618086598988
 21
1513.581097821336
  0
LINE
  8
_0-1_URIMAT
  6
CONTINUOUS
 62
    7
 10
575.90618086598988
 20
1513.581097821336
 11
577.3828952274946
 21
1514.5139882673111
  0
LINE
  8
_0-1_URIMAT
  6
CONTINUOUS
 62
    7
 10
577.3828952274946
 20
1514.5139882673111
 11
579.04860858953043
 21
1515.0362669519543
  0
LINE
  8
_0-1_URIMAT
  6
CONTINUOUS
 62
    7
 10
579.04860858953043
 20
1515.0362669519543
 11
580.91672820727023
 21
1515.0940174074471
  0
LINE
  8
_0-1_URIMAT
  6
CONTINUOUS
 62
    7
 10
580.91672820727023
 20
1515.0940174074471
 11
582.98167128894522
 21
1514.7047163873476
  0
LINE
  8
_0-1_URIMAT
  6
CONTINUOUS
 62
    7
 10
582.98167128894522
 20
1514.7047163873476
 11
585.23242063302541
 21
1513.9045358196754
  0
LINE
  8
_0-1_URIMAT
  6
CONTINUOUS
 62
    7
 10
585.23242063302541
 20
1513.9045358196754
 11
587.64401262729359
 21
1512.7712570809162
  0
LINE
  8
_0-1_URIMAT
  6
CONTINUOUS
 62
    7
 10
587.64401262729359
 20
1512.7712570809162
 11
590.17973979309306
 21
1511.411247059387
  0
LINE
  8
_0-1_URIMAT
  6
CONTINUOUS
 62
    7
 10
583.65308223371062
 20
1452.1164001846759
 11
581.64065331347535
 21
1457.480716912205
  0
LINE
  8
_0-1_URIMAT
  6
CONTINUOUS
 62
    7
 10
581.64065331347535
 20
1457.480716912205
 11
579.84780280133929
 21
1462.5778652816698
  0
LINE
  8
_0-1_URIMAT
  6
CONTINUOUS
 62
    7
 10
579.84780280133929
 20
1462.5778652816698
 11
578.25435852602356
 21
1467.4539647639985
  0
LINE
  8
_0-1_URIMAT
  6
CONTINUOUS
 62
    7
 10
578.25435852602356
 20
1467.4539647639985
 11
576.84707772876254
 21
1472.1404889303869
  0
LINE
  8
_0-1_URIMAT
  6
CONTINUOUS
 62
    7
 10
576.84707772876254
 20
1472.1404889303869
 11
575.61530531234268
 21
1476.6665293203734
  0
LINE
  8
_0-1_URIMAT
  6
CONTINUOUS
 62
    7
 10
575.61530531234268
 20
1476.6665293203734
 11
574.55238371586005
 21
1481.0539245120382
  0
LINE
  8
_0-1_URIMAT
  6
CONTINUOUS
 62
    7
 10
574.55238371586005
 20
1481.0539245120382
 11
573.65997703097502
 21
1485.3043724728811
  0
LINE
  8
_0-1_URIMAT
  6
CONTINUOUS
 62
    7
 10
573.65997703097502
 20
1485.3043724728811
 11
572.95028249731342
 21
1489.3922264992784
  0
LINE
  8
_0-1_URIMAT
  6
CONTINUOUS
 62
    7
 10
572.95028249731342
 20
1489.3922264992784
 11
572.43532555527508
 21
1493.2922641996792
  0
LINE
  8
_0-1_URIMAT
  6
CONTINUOUS
 62
    7
 10
572.43532555527508
 20
1493.2922641996792
 11
572.11983529009694
 21
1496.9883190003833
  0
LINE
  8
_0-1_URIMAT
  6
CONTINUOUS
 62
    7
 10
572.11983529009694
 20
1496.9883190003833
 11
572.00000839017104
 21
1500.4641885381556
  0
LINE
  8
_0-1_URIMAT
  6
CONTINUOUS
 62
    7
 10
572.00000839017104
 20
1500.4641885381556
 11
572.08048709670003
 21
1503.6481494192987
  0
LINE
  8
_0-1_URIMAT
  6
CONTINUOUS
 62
    7
 10
572.08048709670003
 20
1503.6481494192987
 11
572.37512723395491
 21
1506.4637175237394
  0
LINE
  8
_0-1_URIMAT
  6
CONTINUOUS
 62
    7
 10
572.37512723395491
 20
1506.4637175237394
 11
572.89527323335039
 21
1508.8517355494095
  0
LINE
  8
_0-1_URIMAT
  6
CONTINUOUS
 62
    7
 10
572.89527323335039
 20
1508.8517355494095
 11
573.64249327313552
 21
1510.7893437537118
  0
LINE
  8
_0-1_URIMAT
  6
CONTINUOUS
 62
    7
 10
573.64249327313552
 20
1510.7893437537118
 11
574.60688527683157
 21
1512.2933371604081
  0
LINE
  8
_0-1_URIMAT
  6
CONTINUOUS
 62
    7
 10
544.87737514541606
 20
1635.0628122840669
 11
545.00672156900543
 21
1635.0628122840666
  0
LINE
  8
_0-1_URIMAT
  6
CONTINUOUS
 62
    7
 10
545.00672156900543
 20
1635.0628122840666
 11
545.39642301001856
 21
1635.0628122840671
  0
LINE
  8
_0-1_URIMAT
  6
CONTINUOUS
 62
    7
 10
545.39642301001856
 20
1635.0628122840671
 11
546.0475294268416
 21
1635.0628122840671
  0
LINE
  8
_0-1_URIMAT
  6
CONTINUOUS
 62
    7
 10
546.0475294268416
 20
1635.0628122840671
 11
546.96004081947467
 21
1635.0628122840666
  0
LINE
  8
_0-1_URIMAT
  6
CONTINUOUS
 62
    7
 10
546.96004081947467
 20
1635.0628122840666
 11
548.13395718791775
 21
1635.0628122840671
  0
LINE
  8
_0-1_URIMAT
  6
CONTINUOUS
 62
    7
 10
548.13395718791775
 20
1635.0628122840671
 11
549.57347110996067
 21
1635.0628122840669
  0
LINE
  8
_0-1_URIMAT
  6
CONTINUOUS
 62
    7
 10
549.57347110996067
 20
1635.0628122840669
 11
551.30256247122622
 21
1635.0628122840673
  0
LINE
  8
_0-1_URIMAT
  6
CONTINUOUS
 62
    7
 10
551.30256247122622
 20
1635.0628122840673
 11
553.30883204987776
 21
1635.0628122840671
  0
LINE
  8
_0-1_URIMAT
  6
CONTINUOUS
 62
    7
 10
553.30883204987776
 20
1635.0628122840671
 11
555.5845805307174
 21
1635.0628122840669
  0
LINE
  8
_0-1_URIMAT
  6
CONTINUOUS
 62
    7
 10
555.5845805307174
 20
1635.0628122840669
 11
558.14644600645601
 21
1635.0628122840669
  0
LINE
  8
_0-1_URIMAT
  6
CONTINUOUS
 62
    7
 10
558.14644600645601
 20
1635.0628122840669
 11
560.99132609494654
 21
1635.0628122840669
  0
LINE
  8
_0-1_URIMAT
  6
CONTINUOUS
 62
    7
 10
560.99132609494654
 20
1635.0628122840669
 11
564.04115126572253
 21
1635.0628122840673
  0
LINE
  8
_0-1_URIMAT
  6
CONTINUOUS
 62
    7
 10
564.04115126572253
 20
1635.0628122840673
 11
567.41382108417371
 21
1635.0628122840669
  0
LINE
  8
_0-1_URIMAT
  6
CONTINUOUS
 62
    7
 10
567.41382108417371
 20
1635.0628122840669
 11
570.99666790582739
 21
1635.0628122840671
  0
LINE
  8
_0-1_URIMAT
  6
CONTINUOUS
 62
    7
 10
570.99666790582739
 20
1635.0628122840671
 11
574.77119269236868
 21
1635.0628122840666
  0
LINE
  8
_0-1_URIMAT
  6
CONTINUOUS
 62
    7
 10
574.77119269236868
 20
1635.0628122840666
 11
578.76187215371294
 21
1635.0628122840669
  0
LINE
  8
_0-1_URIMAT
  6
CONTINUOUS
 62
    7
 10
744.5804827126758
 20
1520.754693173603
 11
744.58675667638101
 21
1520.9444841533074
  0
LINE
  8
_0-1_URIMAT
  6
CONTINUOUS
 62
    7
 10
744.58675667638101
 20
1520.9444841533074
 11
744.59408397060326
 21
1521.5042020614007
  0
LINE
  8
_0-1_URIMAT
  6
CONTINUOUS
 62
    7
 10
744.59408397060326
 20
1521.5042020614007
 11
744.60205170593008
 21
1522.4035700615143
  0
LINE
  8
_0-1_URIMAT
  6
CONTINUOUS
 62
    7
 10
744.60205170593008
 20
1522.4035700615143
 11
744.61020545962765
 21
1523.593938149816
  0
LINE
  8
_0-1_URIMAT
  6
CONTINUOUS
 62
    7
 10
726.23747858050387
 20
1523.593938149816
 11
726.24563197176064
 21
1522.4036170174654
  0
LINE
  8
_0-1_URIMAT
  6
CONTINUOUS
 62
    7
 10
726.24563197176064
 20
1522.4036170174654
 11
726.25359938187034
 21
1521.5042676330806
  0
LINE
  8
_0-1_URIMAT
  6
CONTINUOUS
 62
    7
 10
726.25359938187034
 20
1521.5042676330806
 11
726.26092644661764
 21
1520.944534680244
  0
LINE
  8
_0-1_URIMAT
  6
CONTINUOUS
 62
    7
 10
726.26092644661764
 20
1520.944534680244
 11
726.26720032539492
 21
1520.754693124737
  0
LINE
  8
_0-1_URIMAT
  6
CONTINUOUS
 62
    7
 10
877.46361396806105
 20
1507.421800549396
 11
877.56400296541505
 21
1507.4763808587761
  0
LINE
  8
_0-1_URIMAT
  6
CONTINUOUS
 62
    7
 10
593.2836809859682
 20
1507.476380908057
 11
593.38320460658064
 21
1507.4222612312519
  0
LINE
  8
_0-1_URIMAT
  6
CONTINUOUS
 62
    7
 10
884.15989615886314
 20
1509.837000350582
 11
884.12985227604917
 21
1509.882934711944
  0
LINE
  8
_0-1_URIMAT
  6
CONTINUOUS
 62
    7
 10
869.43788873148434
 20
1442.0137152670449
 11
872.06908485563963
 21
1448.3298745477086
  0
LINE
  8
_0-1_URIMAT
  6
CONTINUOUS
 62
    7
 10
872.06908485563963
 20
1448.3298745477086
 11
874.43438656001262
 21
1454.300268649559
  0
LINE
  8
_0-1_URIMAT
  6
CONTINUOUS
 62
    7
 10
874.43438656001262
 20
1454.300268649559
 11
876.53785089041809
 21
1459.9291188547788
  0
LINE
  8
_0-1_URIMAT
  6
CONTINUOUS
 62
    7
 10
876.53785089041809
 20
1459.9291188547788
 11
878.393788041903
 21
1465.2463993769692
  0
LINE
  8
_0-1_URIMAT
  6
CONTINUOUS
 62
    7
 10
878.393788041903
 20
1465.2463993769692
 11
880.02752506207957
 21
1470.3057319223587
  0
LINE
  8
_0-1_URIMAT
  6
CONTINUOUS
 62
    7
 10
880.02752506207957
 20
1470.3057319223587
 11
881.45546168138889
 21
1475.1473091983059
  0
LINE
  8
_0-1_URIMAT
  6
CONTINUOUS
 62
    7
 10
881.45546168138889
 20
1475.1473091983059
 11
882.68799727183886
 21
1479.8118186648532
  0
LINE
  8
_0-1_URIMAT
  6
CONTINUOUS
 62
    7
 10
882.68799727183886
 20
1479.8118186648532
 11
883.72693665035899
 21
1484.3199750169446
  0
LINE
  8
_0-1_URIMAT
  6
CONTINUOUS
 62
    7
 10
883.72693665035899
 20
1484.3199750169446
 11
884.56321011037437
 21
1488.6432405419564
  0
LINE
  8
_0-1_URIMAT
  6
CONTINUOUS
 62
    7
 10
884.56321011037437
 20
1488.6432405419564
 11
885.18057774873773
 21
1492.7453512571728
  0
LINE
  8
_0-1_URIMAT
  6
CONTINUOUS
 62
    7
 10
885.18057774873773
 20
1492.7453512571728
 11
885.57179219000977
 21
1496.5979682019601
  0
LINE
  8
_0-1_URIMAT
  6
CONTINUOUS
 62
    7
 10
885.57179219000977
 20
1496.5979682019601
 11
885.74665066943873
 21
1500.167272846497
  0
LINE
  8
_0-1_URIMAT
  6
CONTINUOUS
 62
    7
 10
885.74665066943873
 20
1500.167272846497
 11
885.70148831235155
 21
1503.3597300525761
  0
LINE
  8
_0-1_URIMAT
  6
CONTINUOUS
 62
    7
 10
885.70148831235155
 20
1503.3597300525761
 11
885.42168295812712
 21
1506.0756874649903
  0
LINE
  8
_0-1_URIMAT
  6
CONTINUOUS
 62
    7
 10
885.42168295812712
 20
1506.0756874649903
 11
884.91059735522298
 21
1508.2285370575175
  0
LINE
  8
_0-1_URIMAT
  6
CONTINUOUS
 62
    7
 10
884.91059735522298
 20
1508.2285370575175
 11
884.17837452659864
 21
1509.8082399537709
  0
LINE
  8
_0-1_URIMAT
  6
CONTINUOUS
 62
    7
 10
586.66708996437625
 20
1509.8047588637989
 11
585.93555722537473
 21
1508.2239548563595
  0
LINE
  8
_0-1_URIMAT
  6
CONTINUOUS
 62
    7
 10
585.93555722537473
 20
1508.2239548563595
 11
585.42508352201855
 21
1506.0700511714405
  0
LINE
  8
_0-1_URIMAT
  6
CONTINUOUS
 62
    7
 10
585.42508352201855
 20
1506.0700511714405
 11
585.14585164273319
 21
1503.3533723701168
  0
LINE
  8
_0-1_URIMAT
  6
CONTINUOUS
 62
    7
 10
585.14585164273319
 20
1503.3533723701168
 11
585.10116728734817
 21
1500.1605660281093
  0
LINE
  8
_0-1_URIMAT
  6
CONTINUOUS
 62
    7
 10
585.10116728734817
 20
1500.1605660281093
 11
585.27640069509493
 21
1496.5912351704466
  0
LINE
  8
_0-1_URIMAT
  6
CONTINUOUS
 62
    7
 10
585.27640069509493
 20
1496.5912351704466
 11
585.66793578896397
 21
1492.7387985586767
  0
LINE
  8
_0-1_URIMAT
  6
CONTINUOUS
 62
    7
 10
585.66793578896397
 20
1492.7387985586767
 11
586.28555397348691
 21
1488.6369939773169
  0
LINE
  8
_0-1_URIMAT
  6
CONTINUOUS
 62
    7
 10
586.28555397348691
 20
1488.6369939773169
 11
587.12198563768765
 21
1484.3141534628887
  0
LINE
  8
_0-1_URIMAT
  6
CONTINUOUS
 62
    7
 10
587.12198563768765
 20
1484.3141534628887
 11
588.16099510425613
 21
1479.8065355306432
  0
LINE
  8
_0-1_URIMAT
  6
CONTINUOUS
 62
    7
 10
588.16099510425613
 20
1479.8065355306432
 11
589.39353499909657
 21
1475.1426234854075
  0
LINE
  8
_0-1_URIMAT
  6
CONTINUOUS
 62
    7
 10
589.39353499909657
 20
1475.1426234854075
 11
590.82141653197209
 21
1470.3016646923244
  0
LINE
  8
_0-1_URIMAT
  6
CONTINUOUS
 62
    7
 10
590.82141653197209
 20
1470.3016646923244
 11
592.45504233851704
 21
1465.2429889679083
  0
LINE
  8
_0-1_URIMAT
  6
CONTINUOUS
 62
    7
 10
592.45504233851704
 20
1465.2429889679083
 11
594.31080790128953
 21
1459.9264230769588
  0
LINE
  8
_0-1_URIMAT
  6
CONTINUOUS
 62
    7
 10
594.31080790128953
 20
1459.9264230769588
 11
596.41403389175343
 21
1454.2983569015361
  0
LINE
  8
_0-1_URIMAT
  6
CONTINUOUS
 62
    7
 10
596.41403389175343
 20
1454.2983569015361
 11
598.77900963764636
 21
1448.328865040846
  0
LINE
  8
_0-1_URIMAT
  6
CONTINUOUS
 62
    7
 10
598.77900963764636
 20
1448.328865040846
 11
601.40979521946712
 21
1442.013715476361
  0
LINE
  8
_0-1_URIMAT
  6
CONTINUOUS
 62
    7
 10
868.29802844557764
 20
1439.352085752143
 11
868.24731119303589
 21
1439.245647251342
  0
LINE
  8
_0-1_URIMAT
  6
CONTINUOUS
 62
    7
 10
602.60037284711074
 20
1439.245647251342
 11
602.54965559456888
 21
1439.352085752143
  0
LINE
  8
_0-1_URIMAT
  6
CONTINUOUS
 62
    7
 10
833.19918782415061
 20
1374.8230893522149
 11
842.78963822031323
 21
1390.580265074735
  0
LINE
  8
_0-1_URIMAT
  6
CONTINUOUS
 62
    7
 10
842.78963822031323
 20
1390.580265074735
 11
851.70846853967691
 21
1406.2149076830735
  0
LINE
  8
_0-1_URIMAT
  6
CONTINUOUS
 62
    7
 10
851.70846853967691
 20
1406.2149076830735
 11
855.88918648489027
 21
1413.9731186662759
  0
LINE
  8
_0-1_URIMAT
  6
CONTINUOUS
 62
    7
 10
855.88918648489027
 20
1413.9731186662759
 11
859.85261911178747
 21
1421.6477667984436
  0
LINE
  8
_0-1_URIMAT
  6
CONTINUOUS
 62
    7
 10
859.85261911178747
 20
1421.6477667984436
 11
863.57609337988628
 21
1429.2017867666559
  0
LINE
  8
_0-1_URIMAT
  6
CONTINUOUS
 62
    7
 10
863.57609337988628
 20
1429.2017867666559
 11
867.05407464462302
 21
1436.608269949324
  0
LINE
  8
_0-1_URIMAT
  6
CONTINUOUS
 62
    7
 10
775.51933530839289
 20
1465.148674525036
 11
771.99632119252794
 21
1462.301688140244
  0
LINE
  8
_0-1_URIMAT
  6
CONTINUOUS
 62
    7
 10
797.41182593334269
 20
1516.7096929644449
 11
797.48459510454426
 21
1513.0693078263536
  0
LINE
  8
_0-1_URIMAT
  6
CONTINUOUS
 62
    7
 10
797.48459510454426
 20
1513.0693078263536
 11
797.35269823068006
 21
1509.4534787273137
  0
LINE
  8
_0-1_URIMAT
  6
CONTINUOUS
 62
    7
 10
797.35269823068006
 20
1509.4534787273137
 11
797.01980106157452
 21
1505.8635581503788
  0
LINE
  8
_0-1_URIMAT
  6
CONTINUOUS
 62
    7
 10
797.01980106157452
 20
1505.8635581503788
 11
796.48799856206778
 21
1502.2992663226534
  0
LINE
  8
_0-1_URIMAT
  6
CONTINUOUS
 62
    7
 10
796.48799856206778
 20
1502.2992663226534
 11
795.75736021384398
 21
1498.7605893852289
  0
LINE
  8
_0-1_URIMAT
  6
CONTINUOUS
 62
    7
 10
795.75736021384398
 20
1498.7605893852289
 11
794.8251798357337
 21
1495.2478468532315
  0
LINE
  8
_0-1_URIMAT
  6
CONTINUOUS
 62
    7
 10
794.8251798357337
 20
1495.2478468532315
 11
793.69673409243262
 21
1491.7908533099571
  0
LINE
  8
_0-1_URIMAT
  6
CONTINUOUS
 62
    7
 10
793.69673409243262
 20
1491.7908533099571
 11
792.38413690563197
 21
1488.4240284136549
  0
LINE
  8
_0-1_URIMAT
  6
CONTINUOUS
 62
    7
 10
792.38413690563197
 20
1488.4240284136549
 11
790.88951115765314
 21
1485.1464249482285
  0
LINE
  8
_0-1_URIMAT
  6
CONTINUOUS
 62
    7
 10
790.88951115765314
 20
1485.1464249482285
 11
789.21305852206353
 21
1481.9579275997261
  0
LINE
  8
_0-1_URIMAT
  6
CONTINUOUS
 62
    7
 10
789.21305852206353
 20
1481.9579275997261
 11
787.35305754788475
 21
1478.8593706508936
  0
LINE
  8
_0-1_URIMAT
  6
CONTINUOUS
 62
    7
 10
787.35305754788475
 20
1478.8593706508936
 11
785.30610566192217
 21
1475.8526583014386
  0
LINE
  8
_0-1_URIMAT
  6
CONTINUOUS
 62
    7
 10
785.30610566192217
 20
1475.8526583014386
 11
783.08975297029144
 21
1472.9667797339486
  0
LINE
  8
_0-1_URIMAT
  6
CONTINUOUS
 62
    7
 10
783.08975297029144
 20
1472.9667797339486
 11
780.71993888506654
 21
1470.2207348713864
  0
LINE
  8
_0-1_URIMAT
  6
CONTINUOUS
 62
    7
 10
780.71993888506654
 20
1470.2207348713864
 11
778.19691460905266
 21
1467.6142906722475
  0
LINE
  8
_0-1_URIMAT
  6
CONTINUOUS
 62
    7
 10
778.19691460905266
 20
1467.6142906722475
 11
775.51933530839289
 21
1465.148674525036
  0
LINE
  8
_0-1_URIMAT
  6
CONTINUOUS
 62
    7
 10
698.85136284762745
 20
1462.301688140244
 11
695.32834873176273
 21
1465.148674525036
  0
LINE
  8
_0-1_URIMAT
  6
CONTINUOUS
 62
    7
 10
603.79360939607693
 20
1436.6082699481139
 11
607.27159066077911
 21
1429.2017867655774
  0
LINE
  8
_0-1_URIMAT
  6
CONTINUOUS
 62
    7
 10
607.27159066077911
 20
1429.2017867655774
 11
610.99506492883517
 21
1421.6477667975018
  0
LINE
  8
_0-1_URIMAT
  6
CONTINUOUS
 62
    7
 10
610.99506492883517
 20
1421.6477667975018
 11
614.95849755567678
 21
1413.973118665481
  0
LINE
  8
_0-1_URIMAT
  6
CONTINUOUS
 62
    7
 10
614.95849755567678
 20
1413.973118665481
 11
619.13921550082307
 21
1406.2149076824318
  0
LINE
  8
_0-1_URIMAT
  6
CONTINUOUS
 62
    7
 10
619.13921550082307
 20
1406.2149076824318
 11
628.05804582002519
 21
1390.5802650744126
  0
LINE
  8
_0-1_URIMAT
  6
CONTINUOUS
 62
    7
 10
628.05804582002519
 20
1390.5802650744126
 11
637.64849621599842
 21
1374.8230893522149
  0
LINE
  8
_0-1_URIMAT
  6
CONTINUOUS
 62
    7
 10
695.32834873176273
 20
1465.148674525036
 11
692.65076943111341
 21
1467.614290672237
  0
LINE
  8
_0-1_URIMAT
  6
CONTINUOUS
 62
    7
 10
692.65076943111341
 20
1467.614290672237
 11
690.12774515510875
 21
1470.2207348713643
  0
LINE
  8
_0-1_URIMAT
  6
CONTINUOUS
 62
    7
 10
690.12774515510875
 20
1470.2207348713643
 11
687.75793106989237
 21
1472.9667797339136
  0
LINE
  8
_0-1_URIMAT
  6
CONTINUOUS
 62
    7
 10
687.75793106989237
 20
1472.9667797339136
 11
685.54157837826824
 21
1475.8526583013895
  0
LINE
  8
_0-1_URIMAT
  6
CONTINUOUS
 62
    7
 10
685.54157837826824
 20
1475.8526583013895
 11
683.49462649231077
 21
1478.8593706508308
  0
LINE
  8
_0-1_URIMAT
  6
CONTINUOUS
 62
    7
 10
683.49462649231077
 20
1478.8593706508308
 11
681.63462551813574
 21
1481.9579275996484
  0
LINE
  8
_0-1_URIMAT
  6
CONTINUOUS
 62
    7
 10
681.63462551813574
 20
1481.9579275996484
 11
679.95817288254795
 21
1485.146424948135
  0
LINE
  8
_0-1_URIMAT
  6
CONTINUOUS
 62
    7
 10
679.95817288254795
 20
1485.146424948135
 11
678.46354713457014
 21
1488.4240284135453
  0
LINE
  8
_0-1_URIMAT
  6
CONTINUOUS
 62
    7
 10
678.46354713457014
 20
1488.4240284135453
 11
677.15094994776802
 21
1491.7908533098302
  0
LINE
  8
_0-1_URIMAT
  6
CONTINUOUS
 62
    7
 10
677.15094994776802
 20
1491.7908533098302
 11
676.02250420446466
 21
1495.2478468530871
  0
LINE
  8
_0-1_URIMAT
  6
CONTINUOUS
 62
    7
 10
676.02250420446466
 20
1495.2478468530871
 11
675.09032382634927
 21
1498.7605893850686
  0
LINE
  8
_0-1_URIMAT
  6
CONTINUOUS
 62
    7
 10
675.09032382634927
 20
1498.7605893850686
 11
674.35968547811887
 21
1502.2992663224774
  0
LINE
  8
_0-1_URIMAT
  6
CONTINUOUS
 62
    7
 10
674.35968547811887
 20
1502.2992663224774
 11
673.82788297860395
 21
1505.8635581501866
  0
LINE
  8
_0-1_URIMAT
  6
CONTINUOUS
 62
    7
 10
673.82788297860395
 20
1505.8635581501866
 11
673.49498580948875
 21
1509.4534787271054
  0
LINE
  8
_0-1_URIMAT
  6
CONTINUOUS
 62
    7
 10
673.49498580948875
 20
1509.4534787271054
 11
673.36308893561317
 21
1513.0693078261288
  0
LINE
  8
_0-1_URIMAT
  6
CONTINUOUS
 62
    7
 10
673.36308893561317
 20
1513.0693078261288
 11
673.43585810680121
 21
1516.7096929642038
  0
LINE
  8
_0-1_URIMAT
  6
CONTINUOUS
 62
    7
 10
735.42384202007508
 20
1296.7296883801789
 11
739.65513444861448
 21
1296.8432177143574
  0
LINE
  8
_0-1_URIMAT
  6
CONTINUOUS
 62
    7
 10
739.65513444861448
 20
1296.8432177143574
 11
743.87154096028143
 21
1297.1669170338534
  0
LINE
  8
_0-1_URIMAT
  6
CONTINUOUS
 62
    7
 10
743.87154096028143
 20
1297.1669170338534
 11
748.07307705119922
 21
1297.7008965090903
  0
LINE
  8
_0-1_URIMAT
  6
CONTINUOUS
 62
    7
 10
748.07307705119922
 20
1297.7008965090903
 11
752.2504609713568
 21
1298.4454911186358
  0
LINE
  8
_0-1_URIMAT
  6
CONTINUOUS
 62
    7
 10
752.2504609713568
 20
1298.4454911186358
 11
756.37760141186163
 21
1299.3953948233959
  0
LINE
  8
_0-1_URIMAT
  6
CONTINUOUS
 62
    7
 10
756.37760141186163
 20
1299.3953948233959
 11
760.4271801472114
 21
1300.5408535832525
  0
LINE
  8
_0-1_URIMAT
  6
CONTINUOUS
 62
    7
 10
760.4271801472114
 20
1300.5408535832525
 11
764.39916002919449
 21
1301.8784543048409
  0
LINE
  8
_0-1_URIMAT
  6
CONTINUOUS
 62
    7
 10
764.39916002919449
 20
1301.8784543048409
 11
768.29463169149437
 21
1303.4057524228824
  0
LINE
  8
_0-1_URIMAT
  6
CONTINUOUS
 62
    7
 10
768.29463169149437
 20
1303.4057524228824
 11
772.1143608023118
 21
1305.1211132359103
  0
LINE
  8
_0-1_URIMAT
  6
CONTINUOUS
 62
    7
 10
772.1143608023118
 20
1305.1211132359103
 11
775.85834126284362
 21
1307.0247978604747
  0
LINE
  8
_0-1_URIMAT
  6
CONTINUOUS
 62
    7
 10
775.85834126284362
 20
1307.0247978604747
 11
779.52602620958441
 21
1309.1184175782386
  0
LINE
  8
_0-1_URIMAT
  6
CONTINUOUS
 62
    7
 10
779.52602620958441
 20
1309.1184175782386
 11
783.10026418213078
 21
1311.3928329689774
  0
LINE
  8
_0-1_URIMAT
  6
CONTINUOUS
 62
    7
 10
783.10026418213078
 20
1311.3928329689774
 11
786.54707043234668
 21
1313.8249444316832
  0
LINE
  8
_0-1_URIMAT
  6
CONTINUOUS
 62
    7
 10
786.54707043234668
 20
1313.8249444316832
 11
789.86686784961614
 21
1316.4117740016026
  0
LINE
  8
_0-1_URIMAT
  6
CONTINUOUS
 62
    7
 10
789.86686784961614
 20
1316.4117740016026
 11
796.12640707820457
 21
1322.0455979964476
  0
LINE
  8
_0-1_URIMAT
  6
CONTINUOUS
 62
    7
 10
796.12640707820457
 20
1322.0455979964476
 11
801.78617691650129
 21
1328.2025985235986
  0
LINE
  8
_0-1_URIMAT
  6
CONTINUOUS
 62
    7
 10
801.78617691650129
 20
1328.2025985235986
 11
806.80937493447777
 21
1334.8256962906052
  0
LINE
  8
_0-1_URIMAT
  6
CONTINUOUS
 62
    7
 10
806.80937493447777
 20
1334.8256962906052
 11
816.01132495103217
 21
1348.3055079022526
  0
LINE
  8
_0-1_URIMAT
  6
CONTINUOUS
 62
    7
 10
816.01132495103217
 20
1348.3055079022526
 11
824.85356251798839
 21
1361.7216549928425
  0
LINE
  8
_0-1_URIMAT
  6
CONTINUOUS
 62
    7
 10
824.85356251798839
 20
1361.7216549928425
 11
833.19911755936209
 21
1374.8233090310689
  0
LINE
  8
_0-1_URIMAT
  6
CONTINUOUS
 62
    7
 10
771.9969604714621
 20
1462.300778905261
 11
767.9272434442962
 21
1459.4434858534029
  0
LINE
  8
_0-1_URIMAT
  6
CONTINUOUS
 62
    7
 10
767.9272434442962
 20
1459.4434858534029
 11
763.6893689107278
 21
1456.8554316714833
  0
LINE
  8
_0-1_URIMAT
  6
CONTINUOUS
 62
    7
 10
763.6893689107278
 20
1456.8554316714833
 11
759.28355598582788
 21
1454.5485546830966
  0
LINE
  8
_0-1_URIMAT
  6
CONTINUOUS
 62
    7
 10
759.28355598582788
 20
1454.5485546830966
 11
754.74748750820094
 21
1452.6182667410571
  0
LINE
  8
_0-1_URIMAT
  6
CONTINUOUS
 62
    7
 10
754.74748750820094
 20
1452.6182667410571
 11
750.0904689601906
 21
1451.1089437590148
  0
LINE
  8
_0-1_URIMAT
  6
CONTINUOUS
 62
    7
 10
750.0904689601906
 20
1451.1089437590148
 11
745.30870714733794
 21
1450.0331785704506
  0
LINE
  8
_0-1_URIMAT
  6
CONTINUOUS
 62
    7
 10
745.30870714733794
 20
1450.0331785704506
 11
740.40360545564203
 21
1449.3859126394136
  0
LINE
  8
_0-1_URIMAT
  6
CONTINUOUS
 62
    7
 10
740.40360545564203
 20
1449.3859126394136
 11
735.42384202007758
 21
1449.1683097413629
  0
LINE
  8
_0-1_URIMAT
  6
CONTINUOUS
 62
    7
 10
735.42384202007758
 20
1449.1683097413629
 11
730.44407858451336
 21
1449.3859126394133
  0
LINE
  8
_0-1_URIMAT
  6
CONTINUOUS
 62
    7
 10
730.44407858451336
 20
1449.3859126394133
 11
725.53897689281734
 21
1450.0331785704506
  0
LINE
  8
_0-1_URIMAT
  6
CONTINUOUS
 62
    7
 10
725.53897689281734
 20
1450.0331785704506
 11
720.75721507996502
 21
1451.1089437590148
  0
LINE
  8
_0-1_URIMAT
  6
CONTINUOUS
 62
    7
 10
720.75721507996502
 20
1451.1089437590148
 11
716.10019653195445
 21
1452.6182667410571
  0
LINE
  8
_0-1_URIMAT
  6
CONTINUOUS
 62
    7
 10
716.10019653195445
 20
1452.6182667410571
 11
711.56412805432751
 21
1454.5485546830968
  0
LINE
  8
_0-1_URIMAT
  6
CONTINUOUS
 62
    7
 10
711.56412805432751
 20
1454.5485546830968
 11
707.15831512942781
 21
1456.855431671483
  0
LINE
  8
_0-1_URIMAT
  6
CONTINUOUS
 62
    7
 10
707.15831512942781
 20
1456.855431671483
 11
702.92044059585884
 21
1459.4434858534029
  0
LINE
  8
_0-1_URIMAT
  6
CONTINUOUS
 62
    7
 10
702.92044059585884
 20
1459.4434858534029
 11
698.85072356869341
 21
1462.300778905261
  0
LINE
  8
_0-1_URIMAT
  6
CONTINUOUS
 62
    7
 10
637.64856648078659
 20
1374.8233090310689
 11
645.99412152216223
 21
1361.7216549928402
  0
LINE
  8
_0-1_URIMAT
  6
CONTINUOUS
 62
    7
 10
645.99412152216223
 20
1361.7216549928402
 11
654.83635908911981
 21
1348.3055079022487
  0
LINE
  8
_0-1_URIMAT
  6
CONTINUOUS
 62
    7
 10
654.83635908911981
 20
1348.3055079022487
 11
664.03830910567603
 21
1334.8256962906
  0
LINE
  8
_0-1_URIMAT
  6
CONTINUOUS
 62
    7
 10
664.03830910567603
 20
1334.8256962906
 11
669.06150712365229
 21
1328.2025985235943
  0
LINE
  8
_0-1_URIMAT
  6
CONTINUOUS
 62
    7
 10
669.06150712365229
 20
1328.2025985235943
 11
674.72127696194911
 21
1322.045597996444
  0
LINE
  8
_0-1_URIMAT
  6
CONTINUOUS
 62
    7
 10
674.72127696194911
 20
1322.045597996444
 11
680.98081619053732
 21
1316.4117740015994
  0
LINE
  8
_0-1_URIMAT
  6
CONTINUOUS
 62
    7
 10
680.98081619053732
 20
1316.4117740015994
 11
684.30061360780678
 21
1313.8249444316807
  0
LINE
  8
_0-1_URIMAT
  6
CONTINUOUS
 62
    7
 10
684.30061360780678
 20
1313.8249444316807
 11
687.74741985802234
 21
1311.3928329689751
  0
LINE
  8
_0-1_URIMAT
  6
CONTINUOUS
 62
    7
 10
687.74741985802234
 20
1311.3928329689751
 11
691.32165783056836
 21
1309.1184175782366
  0
LINE
  8
_0-1_URIMAT
  6
CONTINUOUS
 62
    7
 10
691.32165783056836
 20
1309.1184175782366
 11
694.98934277730927
 21
1307.0247978604729
  0
LINE
  8
_0-1_URIMAT
  6
CONTINUOUS
 62
    7
 10
694.98934277730927
 20
1307.0247978604729
 11
698.73332323784097
 21
1305.1211132359089
  0
LINE
  8
_0-1_URIMAT
  6
CONTINUOUS
 62
    7
 10
698.73332323784097
 20
1305.1211132359089
 11
702.55305234865807
 21
1303.4057524228815
  0
LINE
  8
_0-1_URIMAT
  6
CONTINUOUS
 62
    7
 10
702.55305234865807
 20
1303.4057524228815
 11
706.44852401095761
 21
1301.8784543048409
  0
LINE
  8
_0-1_URIMAT
  6
CONTINUOUS
 62
    7
 10
706.44852401095761
 20
1301.8784543048409
 11
710.4205038929407
 21
1300.5408535832521
  0
LINE
  8
_0-1_URIMAT
  6
CONTINUOUS
 62
    7
 10
710.4205038929407
 20
1300.5408535832521
 11
714.47008262829001
 21
1299.3953948233956
  0
LINE
  8
_0-1_URIMAT
  6
CONTINUOUS
 62
    7
 10
714.47008262829001
 20
1299.3953948233956
 11
718.59722306879473
 21
1298.4454911186358
  0
LINE
  8
_0-1_URIMAT
  6
CONTINUOUS
 62
    7
 10
718.59722306879473
 20
1298.4454911186358
 11
722.77460698895185
 21
1297.7008965090901
  0
LINE
  8
_0-1_URIMAT
  6
CONTINUOUS
 62
    7
 10
722.77460698895185
 20
1297.7008965090901
 11
726.97614307986896
 21
1297.1669170338534
  0
LINE
  8
_0-1_URIMAT
  6
CONTINUOUS
 62
    7
 10
726.97614307986896
 20
1297.1669170338534
 11
731.1925495915359
 21
1296.8432177143572
  0
LINE
  8
_0-1_URIMAT
  6
CONTINUOUS
 62
    7
 10
731.1925495915359
 20
1296.8432177143572
 11
735.42384202007508
 21
1296.7296883801789
  0
LINE
  8
_0-1_URIMAT
  6
CONTINUOUS
 62
    7
 10
887.65393016371854
 20
1453.3231248272509
 11
891.70683686170684
 21
1464.2665215777749
  0
LINE
  8
_0-1_URIMAT
  6
CONTINUOUS
 62
    7
 10
891.70683686170684
 20
1464.2665215777749
 11
895.53980669256941
 21
1475.2881186184822
  0
LINE
  8
_0-1_URIMAT
  6
CONTINUOUS
 62
    7
 10
895.53980669256941
 20
1475.2881186184822
 11
899.15493026293586
 21
1486.3822506771791
  0
LINE
  8
_0-1_URIMAT
  6
CONTINUOUS
 62
    7
 10
899.15493026293586
 20
1486.3822506771791
 11
902.55093093043672
 21
1497.54452026856
  0
LINE
  8
_0-1_URIMAT
  6
CONTINUOUS
 62
    7
 10
902.55093093043672
 20
1497.54452026856
 11
905.72712099012846
 21
1508.7703727012783
  0
LINE
  8
_0-1_URIMAT
  6
CONTINUOUS
 62
    7
 10
905.72712099012846
 20
1508.7703727012783
 11
908.68235905938536
 21
1520.0554058972847
  0
LINE
  8
_0-1_URIMAT
  6
CONTINUOUS
 62
    7
 10
908.68235905938536
 20
1520.0554058972847
 11
911.41601418547747
 21
1531.3950885667363
  0
LINE
  8
_0-1_URIMAT
  6
CONTINUOUS
 62
    7
 10
911.41601418547747
 20
1531.3950885667363
 11
913.9272544823857
 21
1542.784959319671
  0
LINE
  8
_0-1_URIMAT
  6
CONTINUOUS
 62
    7
 10
913.9272544823857
 20
1542.784959319671
 11
916.21576390195389
 21
1554.2204310994557
  0
LINE
  8
_0-1_URIMAT
  6
CONTINUOUS
 62
    7
 10
916.21576390195389
 20
1554.2204310994557
 11
918.28091307787667
 21
1565.6967341316276
  0
LINE
  8
_0-1_URIMAT
  6
CONTINUOUS
 62
    7
 10
918.28091307787667
 20
1565.6967341316276
 11
920.12242882767225
 21
1577.2082379079333
  0
LINE
  8
_0-1_URIMAT
  6
CONTINUOUS
 62
    7
 10
920.12242882767225
 20
1577.2082379079333
 11
921.73923805867605
 21
1588.7445899473207
  0
LINE
  8
_0-1_URIMAT
  6
CONTINUOUS
 62
    7
 10
921.73923805867605
 20
1588.7445899473207
 11
923.13082447026772
 21
1600.2921604091354
  0
LINE
  8
_0-1_URIMAT
  6
CONTINUOUS
 62
    7
 10
923.13082447026772
 20
1600.2921604091354
 11
924.29962764468325
 21
1611.8634513302863
  0
LINE
  8
_0-1_URIMAT
  6
CONTINUOUS
 62
    7
 10
924.29962764468325
 20
1611.8634513302863
 11
925.24609234099796
 21
1623.4549908037211
  0
LINE
  8
_0-1_URIMAT
  6
CONTINUOUS
 62
    7
 10
925.24609234099796
 20
1623.4549908037211
 11
925.97013248774521
 21
1635.0628122840669
  0
LINE
  8
_0-1_URIMAT
  6
CONTINUOUS
 62
    7
 10
544.87755155239983
 20
1635.0628122840669
 11
545.59871833462352
 21
1623.4949122833136
  0
LINE
  8
_0-1_URIMAT
  6
CONTINUOUS
 62
    7
 10
545.59871833462352
 20
1623.4949122833136
 11
546.54077264653494
 21
1611.9432670398111
  0
LINE
  8
_0-1_URIMAT
  6
CONTINUOUS
 62
    7
 10
546.54077264653494
 20
1611.9432670398111
 11
547.7036131924483
 21
1600.4118730137461
  0
LINE
  8
_0-1_URIMAT
  6
CONTINUOUS
 62
    7
 10
547.7036131924483
 20
1600.4118730137461
 11
549.08764611219316
 21
1588.9043859325017
  0
LINE
  8
_0-1_URIMAT
  6
CONTINUOUS
 62
    7
 10
549.08764611219316
 20
1588.9043859325017
 11
550.6954889760467
 21
1577.4068526111811
  0
LINE
  8
_0-1_URIMAT
  6
CONTINUOUS
 62
    7
 10
550.6954889760467
 20
1577.4068526111811
 11
552.52644055950554
 21
1565.9343467297926
  0
LINE
  8
_0-1_URIMAT
  6
CONTINUOUS
 62
    7
 10
552.52644055950554
 20
1565.9343467297926
 11
554.57977473939729
 21
1554.4952164992002
  0
LINE
  8
_0-1_URIMAT
  6
CONTINUOUS
 62
    7
 10
554.57977473939729
 20
1554.4952164992002
 11
556.85514118871299
 21
1543.09591026882
  0
LINE
  8
_0-1_URIMAT
  6
CONTINUOUS
 62
    7
 10
556.85514118871299
 20
1543.09591026882
 11
559.35185476385311
 21
1531.7415525617091
  0
LINE
  8
_0-1_URIMAT
  6
CONTINUOUS
 62
    7
 10
559.35185476385311
 20
1531.7415525617091
 11
562.06955933592257
 21
1520.4369581249991
  0
LINE
  8
_0-1_URIMAT
  6
CONTINUOUS
 62
    7
 10
562.06955933592257
 20
1520.4369581249991
 11
565.00738472414684
 21
1509.1866793322546
  0
LINE
  8
_0-1_URIMAT
  6
CONTINUOUS
 62
    7
 10
565.00738472414684
 20
1509.1866793322546
 11
568.16471416190358
 21
1497.9951824616798
  0
LINE
  8
_0-1_URIMAT
  6
CONTINUOUS
 62
    7
 10
568.16471416190358
 20
1497.9951824616798
 11
571.54075915331918
 21
1486.8657284370506
  0
LINE
  8
_0-1_URIMAT
  6
CONTINUOUS
 62
    7
 10
571.54075915331918
 20
1486.8657284370506
 11
575.13501616246389
 21
1475.8024923662112
  0
LINE
  8
_0-1_URIMAT
  6
CONTINUOUS
 62
    7
 10
575.13501616246389
 20
1475.8024923662112
 11
578.94635756130958
 21
1464.8099329213891
  0
LINE
  8
_0-1_URIMAT
  6
CONTINUOUS
 62
    7
 10
578.94635756130958
 20
1464.8099329213891
 11
582.97543475966381
 21
1453.893233873895
  0
LINE
  8
_0-1_URIMAT
  6
CONTINUOUS
 62
    7
 10
744.58057181252729
 20
1520.7531732240111
 11
756.24700022778029
 21
1520.4729160308218
  0
LINE
  8
_0-1_URIMAT
  6
CONTINUOUS
 62
    7
 10
756.24700022778029
 20
1520.4729160308218
 11
767.88871809555701
 21
1519.8080405313373
  0
LINE
  8
_0-1_URIMAT
  6
CONTINUOUS
 62
    7
 10
767.88871809555701
 20
1519.8080405313373
 11
779.49401845051863
 21
1518.822997538213
  0
LINE
  8
_0-1_URIMAT
  6
CONTINUOUS
 62
    7
 10
779.49401845051863
 20
1518.822997538213
 11
791.05309266630047
 21
1517.5418882534561
  0
LINE
  8
_0-1_URIMAT
  6
CONTINUOUS
 62
    7
 10
791.05309266630047
 20
1517.5418882534561
 11
802.55557303766227
 21
1515.9713221886192
  0
LINE
  8
_0-1_URIMAT
  6
CONTINUOUS
 62
    7
 10
802.55557303766227
 20
1515.9713221886192
 11
813.99157666132839
 21
1514.1162134268049
  0
LINE
  8
_0-1_URIMAT
  6
CONTINUOUS
 62
    7
 10
813.99157666132839
 20
1514.1162134268049
 11
825.35094261597953
 21
1511.9778111183879
  0
LINE
  8
_0-1_URIMAT
  6
CONTINUOUS
 62
    7
 10
825.35094261597953
 20
1511.9778111183879
 11
836.61205339267871
 21
1509.5312740090139
  0
LINE
  8
_0-1_URIMAT
  6
CONTINUOUS
 62
    7
 10
634.23552039648382
 20
1509.531588161237
 11
645.49673680371734
 21
1511.9778108682739
  0
LINE
  8
_0-1_URIMAT
  6
CONTINUOUS
 62
    7
 10
645.49673680371734
 20
1511.9778108682739
 11
656.85609948272588
 21
1514.1162115063357
  0
LINE
  8
_0-1_URIMAT
  6
CONTINUOUS
 62
    7
 10
656.85609948272588
 20
1514.1162115063357
 11
668.29210072680405
 21
1515.9713209940225
  0
LINE
  8
_0-1_URIMAT
  6
CONTINUOUS
 62
    7
 10
668.29210072680405
 20
1515.9713209940225
 11
679.79457944521743
 21
1517.5418867777241
  0
LINE
  8
_0-1_URIMAT
  6
CONTINUOUS
 62
    7
 10
679.79457944521743
 20
1517.5418867777241
 11
691.35365189130016
 21
1518.8229961547292
  0
LINE
  8
_0-1_URIMAT
  6
CONTINUOUS
 62
    7
 10
691.35365189130016
 20
1518.8229961547292
 11
702.95895118375744
 21
1519.80803935432
  0
LINE
  8
_0-1_URIMAT
  6
CONTINUOUS
 62
    7
 10
702.95895118375744
 20
1519.80803935432
 11
714.60066858058087
 21
1520.4729156958501
  0
LINE
  8
_0-1_URIMAT
  6
CONTINUOUS
 62
    7
 10
714.60066858058087
 20
1520.4729156958501
 11
726.26709095522551
 21
1520.7535326625879
  0
LINE
  8
_0-1_URIMAT
  6
CONTINUOUS
 62
    7
 10
735.42384339306704
 20
1520.759218492494
 11
744.58056443143902
 21
1520.750383339568
  0
LINE
  8
_0-1_URIMAT
  6
CONTINUOUS
 62
    7
 10
726.26711269390716
 20
1520.750739187581
 11
735.42384074591154
 21
1520.759417624265
  0
LINE
  8
_0-1_URIMAT
  6
CONTINUOUS
 62
    7
 10
836.61452171290727
 20
1509.5352576205209
 11
843.42057691423929
 21
1508.0239041766865
  0
LINE
  8
_0-1_URIMAT
  6
CONTINUOUS
 62
    7
 10
843.42057691423929
 20
1508.0239041766865
 11
849.85948282956428
 21
1506.8086617259405
  0
LINE
  8
_0-1_URIMAT
  6
CONTINUOUS
 62
    7
 10
849.85948282956428
 20
1506.8086617259405
 11
855.79303369663261
 21
1505.9261905215898
  0
LINE
  8
_0-1_URIMAT
  6
CONTINUOUS
 62
    7
 10
855.79303369663261
 20
1505.9261905215898
 11
861.14084115096829
 21
1505.3872344611443
  0
LINE
  8
_0-1_URIMAT
  6
CONTINUOUS
 62
    7
 10
861.14084115096829
 20
1505.3872344611443
 11
865.89524785431751
 21
1505.199733300813
  0
LINE
  8
_0-1_URIMAT
  6
CONTINUOUS
 62
    7
 10
865.89524785431751
 20
1505.199733300813
 11
870.10598863969437
 21
1505.3905769201955
  0
LINE
  8
_0-1_URIMAT
  6
CONTINUOUS
 62
    7
 10
870.10598863969437
 20
1505.3905769201955
 11
873.93878551480065
 21
1506.0548440379577
  0
LINE
  8
_0-1_URIMAT
  6
CONTINUOUS
 62
    7
 10
873.93878551480065
 20
1506.0548440379577
 11
875.77147606094274
 21
1506.6441610911197
  0
LINE
  8
_0-1_URIMAT
  6
CONTINUOUS
 62
    7
 10
875.77147606094274
 20
1506.6441610911197
 11
877.46421813640074
 21
1507.421102384719
  0
LINE
  8
_0-1_URIMAT
  6
CONTINUOUS
 62
    7
 10
593.38265543090949
 20
1507.421422878891
 11
595.0762849718609
 21
1506.6441210824361
  0
LINE
  8
_0-1_URIMAT
  6
CONTINUOUS
 62
    7
 10
595.0762849718609
 20
1506.6441210824361
 11
596.90831242194508
 21
1506.0549852182109
  0
LINE
  8
_0-1_URIMAT
  6
CONTINUOUS
 62
    7
 10
596.90831242194508
 20
1506.0549852182109
 11
600.74159246951182
 21
1505.3905870080707
  0
LINE
  8
_0-1_URIMAT
  6
CONTINUOUS
 62
    7
 10
600.74159246951182
 20
1505.3905870080707
 11
604.95234537586975
 21
1505.1997332455489
  0
LINE
  8
_0-1_URIMAT
  6
CONTINUOUS
 62
    7
 10
604.95234537586975
 20
1505.1997332455489
 11
609.7067689359643
 21
1505.3872289742894
  0
LINE
  8
_0-1_URIMAT
  6
CONTINUOUS
 62
    7
 10
609.7067689359643
 20
1505.3872289742894
 11
615.05458537874756
 21
1505.9261825190033
  0
LINE
  8
_0-1_URIMAT
  6
CONTINUOUS
 62
    7
 10
615.05458537874756
 20
1505.9261825190033
 11
620.98817060311466
 21
1506.8086565526957
  0
LINE
  8
_0-1_URIMAT
  6
CONTINUOUS
 62
    7
 10
620.98817060311466
 20
1506.8086565526957
 11
627.42710709861478
 21
1508.0239041755251
  0
LINE
  8
_0-1_URIMAT
  6
CONTINUOUS
 62
    7
 10
627.42710709861478
 20
1508.0239041755251
 11
634.23309000534504
 21
1509.5353294832671
  0
LINE
  8
_0-1_URIMAT
  6
CONTINUOUS
 62
    7
 10
877.56581277976079
 20
1507.4736662963609
 11
879.77967869604503
 21
1508.6422752611713
  0
LINE
  8
_0-1_URIMAT
  6
CONTINUOUS
 62
    7
 10
879.77967869604503
 20
1508.6422752611713
 11
881.70194917663184
 21
1509.5283087545683
  0
LINE
  8
_0-1_URIMAT
  6
CONTINUOUS
 62
    7
 10
881.70194917663184
 20
1509.5283087545683
 11
883.09519047180697
 21
1510.0165010729356
  0
LINE
  8
_0-1_URIMAT
  6
CONTINUOUS
 62
    7
 10
883.09519047180697
 20
1510.0165010729356
 11
883.8572767881825
 21
1510.1606561261635
  0
LINE
  8
_0-1_URIMAT
  6
CONTINUOUS
 62
    7
 10
883.8572767881825
 20
1510.1606561261635
 11
883.94814662975534
 21
1510.1699626382037
  0
LINE
  8
_0-1_URIMAT
  6
CONTINUOUS
 62
    7
 10
883.94814662975534
 20
1510.1699626382037
 11
883.76808818114182
 21
1510.2266880605097
  0
LINE
  8
_0-1_URIMAT
  6
CONTINUOUS
 62
    7
 10
883.76808818114182
 20
1510.2266880605097
 11
883.84834928443274
 21
1510.1645930244492
  0
LINE
  8
_0-1_URIMAT
  6
CONTINUOUS
 62
    7
 10
883.84834928443274
 20
1510.1645930244492
 11
884.16417193519464
 21
1509.8361948764609
  0
LINE
  8
_0-1_URIMAT
  6
CONTINUOUS
 62
    7
 10
586.68380600881869
 20
1509.8367910449599
 11
586.99923350247161
 21
1510.1644909746792
  0
LINE
  8
_0-1_URIMAT
  6
CONTINUOUS
 62
    7
 10
586.99923350247161
 20
1510.1644909746792
 11
587.07959163084387
 21
1510.2266878809525
  0
LINE
  8
_0-1_URIMAT
  6
CONTINUOUS
 62
    7
 10
587.07959163084387
 20
1510.2266878809525
 11
586.89881287340347
 21
1510.1698442186107
  0
LINE
  8
_0-1_URIMAT
  6
CONTINUOUS
 62
    7
 10
586.89881287340347
 20
1510.1698442186107
 11
586.99040567765439
 21
1510.1606562553174
  0
LINE
  8
_0-1_URIMAT
  6
CONTINUOUS
 62
    7
 10
586.99040567765439
 20
1510.1606562553174
 11
587.75250169073729
 21
1510.0164985038768
  0
LINE
  8
_0-1_URIMAT
  6
CONTINUOUS
 62
    7
 10
587.75250169073729
 20
1510.0164985038768
 11
589.14573355911159
 21
1509.528309329813
  0
LINE
  8
_0-1_URIMAT
  6
CONTINUOUS
 62
    7
 10
589.14573355911159
 20
1509.528309329813
 11
591.0681046615258
 21
1508.6422261547534
  0
LINE
  8
_0-1_URIMAT
  6
CONTINUOUS
 62
    7
 10
591.0681046615258
 20
1508.6422261547534
 11
593.28204254741683
 21
1507.47334235224
  0
LINE
  8
_0-1_URIMAT
  6
CONTINUOUS
 62
    7
 10
880.90203369501068
 20
1436.8759544367019
 11
884.20326104492698
 21
1444.6381764691725
  0
LINE
  8
_0-1_URIMAT
  6
CONTINUOUS
 62
    7
 10
884.20326104492698
 20
1444.6381764691725
 11
887.12906082894994
 21
1451.9472695384749
  0
LINE
  8
_0-1_URIMAT
  6
CONTINUOUS
 62
    7
 10
583.66019608432338
 20
1452.099408274784
 11
586.61089014401454
 21
1444.7193794422978
  0
LINE
  8
_0-1_URIMAT
  6
CONTINUOUS
 62
    7
 10
586.61089014401454
 20
1444.7193794422978
 11
589.94540493458464
 21
1436.876251436344
  0
LINE
  8
_0-1_URIMAT
  6
CONTINUOUS
 62
    7
 10
845.0942194156928
 20
1369.311801237425
 11
855.36243794950325
 21
1386.4622539642073
  0
LINE
  8
_0-1_URIMAT
  6
CONTINUOUS
 62
    7
 10
855.36243794950325
 20
1386.4622539642073
 11
860.20360423546446
 21
1395.0573768540944
  0
LINE
  8
_0-1_URIMAT
  6
CONTINUOUS
 62
    7
 10
860.20360423546446
 20
1395.0573768540944
 11
864.84049997586566
 21
1403.6511502588164
  0
LINE
  8
_0-1_URIMAT
  6
CONTINUOUS
 62
    7
 10
864.84049997586566
 20
1403.6511502588164
 11
869.25132574728968
 21
1412.1884695891608
  0
LINE
  8
_0-1_URIMAT
  6
CONTINUOUS
 62
    7
 10
869.25132574728968
 20
1412.1884695891608
 11
873.41219292129176
 21
1420.607875167464
  0
LINE
  8
_0-1_URIMAT
  6
CONTINUOUS
 62
    7
 10
873.41219292129176
 20
1420.607875167464
 11
877.29819579000877
 21
1428.8442595019098
  0
LINE
  8
_0-1_URIMAT
  6
CONTINUOUS
 62
    7
 10
877.29819579000877
 20
1428.8442595019098
 11
880.90407593634802
 21
1436.880730881438
  0
LINE
  8
_0-1_URIMAT
  6
CONTINUOUS
 62
    7
 10
589.94469006808685
 20
1436.8800180096739
 11
593.54949303614785
 21
1428.844246745941
  0
LINE
  8
_0-1_URIMAT
  6
CONTINUOUS
 62
    7
 10
593.54949303614785
 20
1428.844246745941
 11
597.43549742110485
 21
1420.6078621478347
  0
LINE
  8
_0-1_URIMAT
  6
CONTINUOUS
 62
    7
 10
597.43549742110485
 20
1420.6078621478347
 11
601.59636356220801
 21
1412.1884591678417
  0
LINE
  8
_0-1_URIMAT
  6
CONTINUOUS
 62
    7
 10
601.59636356220801
 20
1412.1884591678417
 11
606.0071879412543
 21
1403.6511429176448
  0
LINE
  8
_0-1_URIMAT
  6
CONTINUOUS
 62
    7
 10
606.0071879412543
 20
1403.6511429176448
 11
610.64408275993946
 21
1395.0573713388109
  0
LINE
  8
_0-1_URIMAT
  6
CONTINUOUS
 62
    7
 10
610.64408275993946
 20
1395.0573713388109
 11
615.48524780680781
 21
1386.4622509814482
  0
LINE
  8
_0-1_URIMAT
  6
CONTINUOUS
 62
    7
 10
615.48524780680781
 20
1386.4622509814482
 11
625.75287267063163
 21
1369.3118805573619
  0
LINE
  8
_0-1_URIMAT
  6
CONTINUOUS
 62
    7
 10
735.42384319782399
 20
1285.0601006570288
 11
740.08075641273819
 21
1285.1732529069804
  0
LINE
  8
_0-1_URIMAT
  6
CONTINUOUS
 62
    7
 10
740.08075641273819
 20
1285.1732529069804
 11
744.72661931403217
 21
1285.5104377583252
  0
LINE
  8
_0-1_URIMAT
  6
CONTINUOUS
 62
    7
 10
744.72661931403217
 20
1285.5104377583252
 11
749.35113323291102
 21
1286.0677045345512
  0
LINE
  8
_0-1_URIMAT
  6
CONTINUOUS
 62
    7
 10
749.35113323291102
 20
1286.0677045345512
 11
753.94407334403342
 21
1286.8425969154191
  0
LINE
  8
_0-1_URIMAT
  6
CONTINUOUS
 62
    7
 10
753.94407334403342
 20
1286.8425969154191
 11
758.49573233818989
 21
1287.8315079154087
  0
LINE
  8
_0-1_URIMAT
  6
CONTINUOUS
 62
    7
 10
758.49573233818989
 20
1287.8315079154087
 11
762.99647288642336
 21
1289.0315890417787
  0
LINE
  8
_0-1_URIMAT
  6
CONTINUOUS
 62
    7
 10
762.99647288642336
 20
1289.0315890417787
 11
767.43696283980864
 21
1290.4392512325821
  0
LINE
  8
_0-1_URIMAT
  6
CONTINUOUS
 62
    7
 10
767.43696283980864
 20
1290.4392512325821
 11
771.80837562871488
 21
1292.0496413142025
  0
LINE
  8
_0-1_URIMAT
  6
CONTINUOUS
 62
    7
 10
771.80837562871488
 20
1292.0496413142025
 11
776.10163027687019
 21
1293.8585715467222
  0
LINE
  8
_0-1_URIMAT
  6
CONTINUOUS
 62
    7
 10
776.10163027687019
 20
1293.8585715467222
 11
780.3075330975264
 21
1295.8616298703238
  0
LINE
  8
_0-1_URIMAT
  6
CONTINUOUS
 62
    7
 10
780.3075330975264
 20
1295.8616298703238
 11
784.41741432803235
 21
1298.0527427523925
  0
LINE
  8
_0-1_URIMAT
  6
CONTINUOUS
 62
    7
 10
784.41741432803235
 20
1298.0527427523925
 11
788.42242083781309
 21
1300.4258274265307
  0
LINE
  8
_0-1_URIMAT
  6
CONTINUOUS
 62
    7
 10
788.42242083781309
 20
1300.4258274265307
 11
792.31370314279047
 21
1302.9745491148817
  0
LINE
  8
_0-1_URIMAT
  6
CONTINUOUS
 62
    7
 10
792.31370314279047
 20
1302.9745491148817
 11
796.08179466475939
 21
1305.6933887407637
  0
LINE
  8
_0-1_URIMAT
  6
CONTINUOUS
 62
    7
 10
796.08179466475939
 20
1305.6933887407637
 11
799.71792841077365
 21
1308.5759190632134
  0
LINE
  8
_0-1_URIMAT
  6
CONTINUOUS
 62
    7
 10
799.71792841077365
 20
1308.5759190632134
 11
803.21319082061313
 21
1311.6161630283468
  0
LINE
  8
_0-1_URIMAT
  6
CONTINUOUS
 62
    7
 10
803.21319082061313
 20
1311.6161630283468
 11
806.56107418894032
 21
1314.8069985271863
  0
LINE
  8
_0-1_URIMAT
  6
CONTINUOUS
 62
    7
 10
806.56107418894032
 20
1314.8069985271863
 11
809.75494941163606
 21
1318.1424006568174
  0
LINE
  8
_0-1_URIMAT
  6
CONTINUOUS
 62
    7
 10
809.75494941163606
 20
1318.1424006568174
 11
812.7873874231418
 21
1321.6172318224237
  0
LINE
  8
_0-1_URIMAT
  6
CONTINUOUS
 62
    7
 10
812.7873874231418
 20
1321.6172318224237
 11
815.65304048161704
 21
1325.2260871740036
  0
LINE
  8
_0-1_URIMAT
  6
CONTINUOUS
 62
    7
 10
815.65304048161704
 20
1325.2260871740036
 11
820.96198710277406
 21
1332.6915412923408
  0
LINE
  8
_0-1_URIMAT
  6
CONTINUOUS
 62
    7
 10
820.96198710277406
 20
1332.6915412923408
 11
826.04276260359654
 21
1340.039597739068
  0
LINE
  8
_0-1_URIMAT
  6
CONTINUOUS
 62
    7
 10
826.04276260359654
 20
1340.039597739068
 11
835.8602953954811
 21
1354.79572599735
  0
LINE
  8
_0-1_URIMAT
  6
CONTINUOUS
 62
    7
 10
835.8602953954811
 20
1354.79572599735
 11
840.5687479622901
 21
1362.1134089025706
  0
LINE
  8
_0-1_URIMAT
  6
CONTINUOUS
 62
    7
 10
840.5687479622901
 20
1362.1134089025706
 11
845.09576173366974
 21
1369.313168150915
  0
LINE
  8
_0-1_URIMAT
  6
CONTINUOUS
 62
    7
 10
625.75223033350232
 20
1369.3131606297349
 11
630.27893742114952
 21
1362.1134059583064
  0
LINE
  8
_0-1_URIMAT
  6
CONTINUOUS
 62
    7
 10
630.27893742114952
 20
1362.1134059583064
 11
634.98738979086135
 21
1354.7957241913343
  0
LINE
  8
_0-1_URIMAT
  6
CONTINUOUS
 62
    7
 10
634.98738979086135
 20
1354.7957241913343
 11
644.80492052433339
 21
1340.0395919203472
  0
LINE
  8
_0-1_URIMAT
  6
CONTINUOUS
 62
    7
 10
644.80492052433339
 20
1340.0395919203472
 11
649.88569799962988
 21
1332.6915404788223
  0
LINE
  8
_0-1_URIMAT
  6
CONTINUOUS
 62
    7
 10
649.88569799962988
 20
1332.6915404788223
 11
655.19464045621032
 21
1325.2260829850733
  0
LINE
  8
_0-1_URIMAT
  6
CONTINUOUS
 62
    7
 10
655.19464045621032
 20
1325.2260829850733
 11
658.06029462582603
 21
1321.6172335782021
  0
LINE
  8
_0-1_URIMAT
  6
CONTINUOUS
 62
    7
 10
658.06029462582603
 20
1321.6172335782021
 11
661.092733547698
 21
1318.1424010874727
  0
LINE
  8
_0-1_URIMAT
  6
CONTINUOUS
 62
    7
 10
661.092733547698
 20
1318.1424010874727
 11
664.28660890325159
 21
1314.806999503146
  0
LINE
  8
_0-1_URIMAT
  6
CONTINUOUS
 62
    7
 10
664.28660890325159
 20
1314.806999503146
 11
667.63449243380853
 21
1311.6161637397235
  0
LINE
  8
_0-1_URIMAT
  6
CONTINUOUS
 62
    7
 10
667.63449243380853
 20
1311.6161637397235
 11
671.12975559046094
 21
1308.575919957012
  0
LINE
  8
_0-1_URIMAT
  6
CONTINUOUS
 62
    7
 10
671.12975559046094
 20
1308.575919957012
 11
674.7658886188949
 21
1305.6933891560847
  0
LINE
  8
_0-1_URIMAT
  6
CONTINUOUS
 62
    7
 10
674.7658886188949
 20
1305.6933891560847
 11
678.53398016473818
 21
1302.9745494322899
  0
LINE
  8
_0-1_URIMAT
  6
CONTINUOUS
 62
    7
 10
678.53398016473818
 20
1302.9745494322899
 11
682.42526244340581
 21
1300.4258279514913
  0
LINE
  8
_0-1_URIMAT
  6
CONTINUOUS
 62
    7
 10
682.42526244340581
 20
1300.4258279514913
 11
686.43026883719858
 21
1298.0527433400718
  0
LINE
  8
_0-1_URIMAT
  6
CONTINUOUS
 62
    7
 10
686.43026883719858
 20
1298.0527433400718
 11
690.54014963369479
 21
1295.861630473106
  0
LINE
  8
_0-1_URIMAT
  6
CONTINUOUS
 62
    7
 10
690.54014963369479
 20
1295.861630473106
 11
694.74605225437687
 21
1293.8585722118889
  0
LINE
  8
_0-1_URIMAT
  6
CONTINUOUS
 62
    7
 10
694.74605225437687
 20
1293.8585722118889
 11
699.03930669064288
 21
1292.04964202577
  0
LINE
  8
_0-1_URIMAT
  6
CONTINUOUS
 62
    7
 10
699.03930669064288
 20
1292.04964202577
 11
703.41071966509298
 21
1290.4392528558651
  0
LINE
  8
_0-1_URIMAT
  6
CONTINUOUS
 62
    7
 10
703.41071966509298
 20
1290.4392528558651
 11
707.85120955435331
 21
1289.0315895210349
  0
LINE
  8
_0-1_URIMAT
  6
CONTINUOUS
 62
    7
 10
707.85120955435331
 20
1289.0315895210349
 11
712.35194991726041
 21
1287.831506206103
  0
LINE
  8
_0-1_URIMAT
  6
CONTINUOUS
 62
    7
 10
712.35194991726041
 20
1287.831506206103
 11
716.90360941184724
 21
1286.842597111987
  0
LINE
  8
_0-1_URIMAT
  6
CONTINUOUS
 62
    7
 10
716.90360941184724
 20
1286.842597111987
 11
721.49654987227074
 21
1286.0677065788324
  0
LINE
  8
_0-1_URIMAT
  6
CONTINUOUS
 62
    7
 10
721.49654987227074
 20
1286.0677065788324
 11
726.12106328832351
 21
1285.5104361261032
  0
LINE
  8
_0-1_URIMAT
  6
CONTINUOUS
 62
    7
 10
726.12106328832351
 20
1285.5104361261032
 11
730.76692801177239
 21
1285.1732504298447
  0
LINE
  8
_0-1_URIMAT
  6
CONTINUOUS
 62
    7
 10
730.76692801177239
 20
1285.1732504298447
 11
735.42384095455304
 21
1285.060143625308
  0
LINE
  8
_0-1_URIMAT
  6
CONTINUOUS
 62
    7
 10
546.88967919794993
 20
1635.0628124360409
 11
546.88944042861248
 21
1635.0628124360409
  0
LINE
  8
_0-1_URIMAT
  6
CONTINUOUS
 62
    7
 10
726.02389379606415
 20
1635.0628122840669
 11
653.51262950751754
 21
1635.0628122840669
  0
LINE
  8
_0-1_URIMAT
  6
CONTINUOUS
 62
    7
 10
815.48460425273776
 20
1635.0628122840669
 11
742.97333996419126
 21
1635.0628122840669
  0
LINE
  8
_0-1_URIMAT
  6
CONTINUOUS
 62
    7
 10
734.49861688012788
 20
1635.0628122840669
 11
726.02389379606449
 21
1635.0628122840669
  0
LINE
  8
_0-1_URIMAT
  6
CONTINUOUS
 62
    7
 10
742.97333996419115
 20
1635.0628122840669
 11
734.49861688012788
 21
1635.0628122840669
  0
LINE
  8
_0-1_URIMAT
  6
CONTINUOUS
 62
    7
 10
886.62346857406771
 20
1635.062812282161
 11
885.22085181239663
 21
1635.0628122840669
  0
LINE
  8
_0-1_URIMAT
  6
CONTINUOUS
 62
    7
 10
885.22085181239663
 20
1635.0628122840669
 11
883.38725568731956
 21
1635.0628122840669
  0
LINE
  8
_0-1_URIMAT
  6
CONTINUOUS
 62
    7
 10
883.38725568731956
 20
1635.0628122840669
 11
879.19850566906768
 21
1635.0628122840669
  0
LINE
  8
_0-1_URIMAT
  6
CONTINUOUS
 62
    7
 10
879.19850566906768
 20
1635.0628122840669
 11
870.42305356840006
 21
1635.0628122840669
  0
LINE
  8
_0-1_URIMAT
  6
CONTINUOUS
 62
    7
 10
870.42305356840006
 20
1635.0628122840669
 11
852.28306534308342
 21
1635.0628122840671
  0
LINE
  8
_0-1_URIMAT
  6
CONTINUOUS
 62
    7
 10
852.28306534308342
 20
1635.0628122840671
 11
815.48460425273776
 21
1635.0628122840669
  0
LINE
  8
_0-1_URIMAT
  6
CONTINUOUS
 62
    7
 10
653.51262950751754
 20
1635.0628122840669
 11
616.71416841717268
 21
1635.0628122840669
  0
LINE
  8
_0-1_URIMAT
  6
CONTINUOUS
 62
    7
 10
616.71416841717268
 20
1635.0628122840669
 11
598.57418019185547
 21
1635.0628122840669
  0
LINE
  8
_0-1_URIMAT
  6
CONTINUOUS
 62
    7
 10
598.57418019185547
 20
1635.0628122840669
 11
589.79872809118785
 21
1635.0628122840669
  0
LINE
  8
_0-1_URIMAT
  6
CONTINUOUS
 62
    7
 10
589.79872809118785
 20
1635.0628122840669
 11
585.6099780729362
 21
1635.0628122840669
  0
LINE
  8
_0-1_URIMAT
  6
CONTINUOUS
 62
    7
 10
585.6099780729362
 20
1635.0628122840669
 11
583.77638194785902
 21
1635.0628122840669
  0
LINE
  8
_0-1_URIMAT
  6
CONTINUOUS
 62
    7
 10
583.77638194785902
 20
1635.0628122840669
 11
582.37376518618793
 21
1635.062812282161
  0
LINE
  8
_0-1_URIMAT
  6
CONTINUOUS
 62
    7
 10
933.42603275796489
 20
1635.0628122840669
 11
933.26554107116839
 21
1635.0628122840666
  0
LINE
  8
_0-1_URIMAT
  6
CONTINUOUS
 62
    7
 10
933.26554107116839
 20
1635.0628122840666
 11
932.79213261858433
 21
1635.0628122840671
  0
LINE
  8
_0-1_URIMAT
  6
CONTINUOUS
 62
    7
 10
932.79213261858433
 20
1635.0628122840671
 11
932.03419045446139
 21
1635.0628122840666
  0
LINE
  8
_0-1_URIMAT
  6
CONTINUOUS
 62
    7
 10
932.03419045446139
 20
1635.0628122840666
 11
931.02092026408115
 21
1635.0628122840666
  0
LINE
  8
_0-1_URIMAT
  6
CONTINUOUS
 62
    7
 10
931.02092026408115
 20
1635.0628122840666
 11
929.78148967679965
 21
1635.0628122840666
  0
LINE
  8
_0-1_URIMAT
  6
CONTINUOUS
 62
    7
 10
929.78148967679965
 20
1635.0628122840666
 11
928.31257972389721
 21
1635.0628122840671
  0
LINE
  8
_0-1_URIMAT
  6
CONTINUOUS
 62
    7
 10
928.31257972389721
 20
1635.0628122840671
 11
926.56468488896643
 21
1635.0628122840669
  0
LINE
  8
_0-1_URIMAT
  6
CONTINUOUS
 62
    7
 10
926.56468488896643
 20
1635.0628122840669
 11
924.48390453053821
 21
1635.0628122840669
  0
LINE
  8
_0-1_URIMAT
  6
CONTINUOUS
 62
    7
 10
924.48390453053821
 20
1635.0628122840669
 11
922.01501240081256
 21
1635.0628122840671
  0
LINE
  8
_0-1_URIMAT
  6
CONTINUOUS
 62
    7
 10
922.01501240081256
 20
1635.0628122840671
 11
919.10109234609626
 21
1635.0628122840669
  0
LINE
  8
_0-1_URIMAT
  6
CONTINUOUS
 62
    7
 10
919.10109234609626
 20
1635.0628122840669
 11
915.68573250007659
 21
1635.0628122840666
  0
LINE
  8
_0-1_URIMAT
  6
CONTINUOUS
 62
    7
 10
915.68573250007659
 20
1635.0628122840666
 11
911.67737565567506
 21
1635.0628122840669
  0
LINE
  8
_0-1_URIMAT
  6
CONTINUOUS
 62
    7
 10
911.67737565567506
 20
1635.0628122840669
 11
906.94443500518161
 21
1635.0628122840669
  0
LINE
  8
_0-1_URIMAT
  6
CONTINUOUS
 62
    7
 10
906.94443500518161
 20
1635.0628122840669
 11
904.26436766570952
 21
1635.0628122840666
  0
LINE
  8
_0-1_URIMAT
  6
CONTINUOUS
 62
    7
 10
904.26436766570952
 20
1635.0628122840666
 11
901.35252776179129
 21
1635.0628122840671
  0
LINE
  8
_0-1_URIMAT
  6
CONTINUOUS
 62
    7
 10
901.35252776179129
 20
1635.0628122840671
 11
898.19162615774939
 21
1635.0628122840669
  0
LINE
  8
_0-1_URIMAT
  6
CONTINUOUS
 62
    7
 10
898.19162615774939
 20
1635.0628122840669
 11
894.76399385477895
 21
1635.0628122840666
  0
LINE
  8
_0-1_URIMAT
  6
CONTINUOUS
 62
    7
 10
894.76399385477895
 20
1635.0628122840666
 11
891.03095054509242
 21
1635.0628122840671
  0
LINE
  8
_0-1_URIMAT
  6
CONTINUOUS
 62
    7
 10
891.03095054509242
 20
1635.0628122840671
 11
888.96639588347375
 21
1635.0628122840666
  0
LINE
  8
_0-1_URIMAT
  6
CONTINUOUS
 62
    7
 10
888.96639588347375
 20
1635.0628122840666
 11
886.62346857418685
 21
1635.0628122840701
  0
LINE
  8
_0-1_URIMAT
  6
CONTINUOUS
 62
    7
 10
582.37376518606924
 20
1635.0628122840701
 11
580.03071074787703
 21
1635.0628122840671
  0
LINE
  8
_0-1_URIMAT
  6
CONTINUOUS
 62
    7
 10
580.03071074787703
 20
1635.0628122840671
 11
577.9660519410097
 21
1635.0628122840671
  0
LINE
  8
_0-1_URIMAT
  6
CONTINUOUS
 62
    7
 10
577.9660519410097
 20
1635.0628122840671
 11
574.23282236804823
 21
1635.0628122840669
  0
LINE
  8
_0-1_URIMAT
  6
CONTINUOUS
 62
    7
 10
574.23282236804823
 20
1635.0628122840669
 11
570.80502969113206
 21
1635.0628122840673
  0
LINE
  8
_0-1_URIMAT
  6
CONTINUOUS
 62
    7
 10
570.80502969113206
 20
1635.0628122840673
 11
567.64399582379519
 21
1635.0628122840671
  0
LINE
  8
_0-1_URIMAT
  6
CONTINUOUS
 62
    7
 10
567.64399582379519
 20
1635.0628122840671
 11
564.73204871200459
 21
1635.0628122840671
  0
LINE
  8
_0-1_URIMAT
  6
CONTINUOUS
 62
    7
 10
564.73204871200459
 20
1635.0628122840671
 11
562.05189628676305
 21
1635.0628122840669
  0
LINE
  8
_0-1_URIMAT
  6
CONTINUOUS
 62
    7
 10
562.05189628676305
 20
1635.0628122840669
 11
557.3188400802793
 21
1635.0628122840669
  0
LINE
  8
_0-1_URIMAT
  6
CONTINUOUS
 62
    7
 10
557.3188400802793
 20
1635.0628122840669
 11
553.31042132444986
 21
1635.0628122840669
  0
LINE
  8
_0-1_URIMAT
  6
CONTINUOUS
 62
    7
 10
553.31042132444986
 20
1635.0628122840669
 11
549.8950331674788
 21
1635.0628122840666
  0
LINE
  8
_0-1_URIMAT
  6
CONTINUOUS
 62
    7
 10
549.8950331674788
 20
1635.0628122840666
 11
546.98112266768009
 21
1635.0628122840669
  0
LINE
  8
_0-1_URIMAT
  6
CONTINUOUS
 62
    7
 10
546.98112266768009
 20
1635.0628122840669
 11
544.51226848199235
 21
1635.0628122840671
  0
LINE
  8
_0-1_URIMAT
  6
CONTINUOUS
 62
    7
 10
544.51226848199235
 20
1635.0628122840671
 11
542.43154529398998
 21
1635.0628122840671
  0
LINE
  8
_0-1_URIMAT
  6
CONTINUOUS
 62
    7
 10
542.43154529398998
 20
1635.0628122840671
 11
540.68371789341097
 21
1635.0628122840669
  0
LINE
  8
_0-1_URIMAT
  6
CONTINUOUS
 62
    7
 10
540.68371789341097
 20
1635.0628122840669
 11
539.21487682725717
 21
1635.0628122840671
  0
LINE
  8
_0-1_URIMAT
  6
CONTINUOUS
 62
    7
 10
539.21487682725717
 20
1635.0628122840671
 11
537.97551917989005
 21
1635.0628122840669
  0
LINE
  8
_0-1_URIMAT
  6
CONTINUOUS
 62
    7
 10
537.97551917989005
 20
1635.0628122840669
 11
536.96236579266735
 21
1635.0628122840669
  0
LINE
  8
_0-1_URIMAT
  6
CONTINUOUS
 62
    7
 10
536.96236579266735
 20
1635.0628122840669
 11
536.2045928148816
 21
1635.0628122840671
  0
LINE
  8
_0-1_URIMAT
  6
CONTINUOUS
 62
    7
 10
536.2045928148816
 20
1635.0628122840671
 11
535.73141045939632
 21
1635.0628122840671
  0
LINE
  8
_0-1_URIMAT
  6
CONTINUOUS
 62
    7
 10
535.73141045939632
 20
1635.0628122840671
 11
535.57120601686062
 21
1635.0628122840669
  0
LINE
  8
_0-1_URIMAT
  6
CONTINUOUS
 62
    7
 10
1253.172918371556
 20
604.17553309847812
 11
1253.198183934249
 21
604.13889709506577
  0
LINE
  8
_0-1_URIMAT
  6
CONTINUOUS
 62
    7
 10
1255.33860815877
 20
604.73791238671424
 11
1253.9088630763019
 21
604.57774987680454
  0
LINE
  8
_0-1_URIMAT
  6
CONTINUOUS
 62
    7
 10
1253.1727906598221
 20
604.17543185927854
 11
1253.907335682155
 21
604.57688878195153
  0
LINE
  8
_0-0_0
  6
CONTINUOUS
 62
    7
 10
742.04183728928114
 20
315.08393774423825
 11
727.89970128928132
 21
300.9418027442382
  0
LINE
  8
_0-0_0
  6
CONTINUOUS
 62
    7
 10
727.89970128928132
 20
315.08393774423825
 11
742.04183728928114
 21
300.9418027442382
  0
CIRCLE
  8
_0-0_0
  6
CONTINUOUS
 62
    7
 10
734.97076928928117
 20
38.012886024328963
 40
2
  0
LINE
  8
_0-0_0
  6
CONTINUOUS
 62
    7
 10
1617.234637592928
 20
315.08393774423825
 11
1603.092501592929
 21
300.9418027442382
  0
LINE
  8
_0-0_0
  6
CONTINUOUS
 62
    7
 10
1603.092501592929
 20
315.08393774423825
 11
1617.234637592928
 21
300.9418027442382
  0
CIRCLE
  8
_0-0_0
  6
CONTINUOUS
 62
    7
 10
1610.163569592928
 20
38.012886024328963
 40
2
  0
LINE
  8
_0-0_0
  6
CONTINUOUS
 62
    7
 10
742.49554394826475
 20
1642.1338797840669
 11
728.35340794826481
 21
1627.9917447840668
  0
LINE
  8
_0-0_0
  6
CONTINUOUS
 62
    7
 10
728.35340794826481
 20
1642.1338797840669
 11
742.49554394826475
 21
1627.9917447840668
  0
ENDSEC
  0
EOF
